Guitar Tabs, Chords and Lyrics


X Gonna Give It To Ya   Dmx



d|----------------------------------------------------\
a|---------------------------------------------------- \
f|----------------------------------------------------  \
c|----------------------------------------------------   \
g|-----7777-----5555-----3333-----1111----------------    \
d|-9-9------7-7------5-5------3-3---------------------     \
                                                            X2
d|----------------------------------------------------     /
a|----------------------------------------------------    /
f|----------------------------------------------------   /
c|----------------------------------------------------  /
g|---------------------------------------------------- /
d|-9~-------7~-------5~-------3~----------------------/


THIS IS THE REST OF THE SONG
d|----------------------------------------------------
a|----------------------------------------------------
f|----------------------------------------------------
c|----------------------------------------------------
g|-----7777-----5555-----3333-----1111----------------
d|-9-9------7-7------5-5------3-3---------------------

d|----------------------------------------------------
a|----------------------------------------------------
f|----------------------------------------------------
c|----------------------------------------------------
g|----------------------------------------------------
d|-9~-------7~-------5~-------3~----------------------

d|----------------------------------------------------
a|----------------------------------------------------
f|----------------------------------------------------
c|----------------------------------------------------
g|-----7777-----5555-----3333-----1111----------------
d|-9-9------7-7------5-5------3-3---------------------

d|----------------------------------------------------
a|----------------------------------------------------
f|----------------------------------------------------
c|----------------------------------------------------
g|----------------------------------------------------


Important: The song above is NOT stored on the Chordie server. The original song is hosted at www.guitaretab.com. Chordie works as a search engine and provides on-the-fly formatting. Chordie does not index songs against artists'/composers' will. To remove this song please click here.

This song is displayed as text-only. Transposing and tuning is only available for chordpro-songs.

Login - add to songbook

Rating click stars to rate

Layout
Accuracy

SHARE PAGE  




You need to log in to post comments