""; ?> At Last by Do - guitar chords, guitar tabs and lyrics - chordie

At Last

Do

 FDmDbB/FDb7
e|-----(8)------5-------4------(10)-----4--|
B|------10------6-------6-------11------6--|
G|------10------7-------6-------10------4--|
D|------10------7-------6-------8-------6--|
A|------8-------5-------4-------8-------4--|
E|-----------------------------------------|


 F
At last I found what I was dreaming of

So bad I want to tell the whole world
 Dm
But I won't say no more
 F
Won't make it harder on you 

At last the love that I was dreaming of is mine
 Dm
Been walking on air for the last 92 hours
 F
But I won't make it harder on you girls.

 Db
 Been groping my way along the darkest of dungeons
 B/F
 Until I found out there were switches all around.
 F
At last!

 F
 At last I found I was dreaming of

Someone who truly understands me
 Dm
man I can trust
 F
Trust with my dust   

At last it's more than I could ever expect

I can't believe it's real
 DmF
Now my life has a goal, a good happy home   

 Db
 Made up my mind now it's time settle down
 B/F
But don't hold this against me I gotta run now.
 F
At last!

 F
 Oh girls I found what you're still craving for

If you accept a piece of my advice
 DmF
It's nothing but luck and I happened to be struck  

Oh girls oh please don't be so childish

Don't want my joy to make you sick
 Db
Thought I could share the fun
 B/FF
But I guess I was wrong    

 Db
 Gave up my heart and my soul and my pride
 B/F
And my job and my creeds and the ones that I love
 Db
 Gave up my all to a man I just met
 B/F
But there's no time to waste cos it's almost too late...

 FDb7
At last !    
 FDb7
At last !    
 FDb7
At last !    
 F
At last !

There are many variations played on the F chord throughout the song, i can't tab these
sorry. The main variations is:

e|-----(8)-----------------------------------------|
B|------10---8---10---8---10-----------------------|
G|------10---8---10---8---10-----etc---------------|
D|------10---8---10---8---10-----------------------|
A|------8----8---8----8---8------------------------|
E|-------------------------------------------------|


Other chords used for these variations are F6, Fsus2 and F7. Not too sure about that though.

Have fun.


B/F Db Db7 Dm F
variations - click chord images
Transpose chords:
Tuning:
Cool service:
View: Size:
A  A  A
Rating:
Layout:
  • Currently 3.2/5 Stars.
  • 1
  • 2
  • 3
  • 4
  • 5
 
Accuracy:
  • Currently 3.1/5 Stars.
  • 1
  • 2
  • 3
  • 4
  • 5
 
click stars to rate
Chordie recommends:
Learn how to play guitar at JamPlay.com
Songbook:
Login to add this song to your songbook
Support the artist
Preview/buy this song
MSN Music
Why this non-profit ad?

 
login to add comments/video/corrections