Paul Newmans Eyes

Dogs Die In Hot Cars

 ABm
E|---------0----------------------------------------------2-------------|
B|---------2----------------------------------------------3-------------|
G|---------2----------------------------------------------4-------------|
D|---------2----------------------------------------------4-------------|
A|---------0----------------------------------------------2-------------|
E|---------x----------------------------------------------2-------------|

I wish I had Paul Newman's eyes And every day came with some surprise

 AG
E|---------0-----------------3--|
B|---------2-----------------0--|
G|---------2-----------------0--|
D|---------2-----------------0--|
A|---------0-----------------2--|
E|---------x-----------------3--|


I wish I had Paul Newman's eyes
 AD
   That would be nice          

Verse:

 A
 Look at those houses, big houses over there
 D
 Look at those suits spending money without a care
 A
 Here comes the stars with perks around their arms
 D
 Here comes the sports car that carries so much
 AD
ch- ch- ch- ch- ch- ch- charm, ch- ch- ch- charm

 A
 But I'm just a nothing that doesn't have a lot
 D
 And I asked for your life but look at what I got

Pre Chorus:

F (ou-oh-oh-oh-oh-oh !)
So sick of seeing, don't want to hear no more
C (ou-oh-oh-oh-oh-oh !)
And you can amputate my limbs
F (ou-oh-oh-oh-oh-oh !)
And starve me to death whilst I beg for freedom
 E
 Away from a life which is this

Chorus:

 A
But I wish I had Paul Newman's eyes
 Bm
And every day came with some surprise
 AG
I wish I had Paul Newman's eyes
 A
That would be nice

Verse2:

Look at those setters, those setters of the trend
Look at that band, they act so confident
Here comes the movies with dialogue so cool
Why did they never tell me to speak like that in primary school

Pre Chorus

Chorus:

But still I wish I had Paul Newman's eyes
And every day came with some surprise
I wish I had Paul Newman's eyes
That would be nice

Interlude: A D A D

Pre Chorus:

So sick of seeing
Can't stand to talk
And I've no compassion
Or tho-o-o-o-o-o-ought


Chorus

11.02.2007
Garwolin, Poland


A Bm D E G
variations - click chord images
Transpose chords:
Tuning:
Cool service:
View: Size:
A  A  A
Rating:
Layout:
  • Currently 3/5 Stars.
  • 1
  • 2
  • 3
  • 4
  • 5
 
Accuracy:
  • Currently 2.7/5 Stars.
  • 1
  • 2
  • 3
  • 4
  • 5
 
click stars to rate
Chordie recommends:
Learn to play this song & others via video guitar lessons at JamPlay.com
Songbook:
Login to add this song to your songbook
Support the artist
Preview/buy this song
MSN Music
Why this non-profit ad?

 
login to add comments/video/corrections