""; ?> Amanda by Don Williams - guitar chords, guitar tabs and lyrics - chordie

Amanda

Don Williams

 GC
e|---------------------------------------------|
B|---------------------------------------------|
G|---------------------------------------------|
D|---------------------------------------------|
A|-------------------------3-----2-----0-----2-|
E|-3---3----------3-0--------------------------|


"I've held it all inward, Lord knows I've tried.
 GDG
e|---------------------------------------------|
B|---------------------------------------------|
G|---------------------------------------------|
D|---------------------------------------------|
A|-------------------------3-----2----0--------|
E|-3---3---------3-0-----------------------3---|


It's an awful awakening, a country boy's life.
 GC
e|---------------------------------------------|
B|---------------------------------------------|
G|---------------------------------------------|
D|---------------------------------------------|
A|------------------------3--2--0---2----------|
E|-3----3--------3-0---------------------------|


To look in the mirror in total suprise.
 GDG
e|-------------------------------------------------------|
B|-------------------------------------------------------|
G|-------------------------------------------------------|
D|-------------------------------------------------------|
A|--------------------------------------3---2---0--------|
E|-3----3-------------3----0-------------------------3---|


At the hair on your shoulders, and the age in your eyes."

Chorus:
 GC
e|-------------------------------|
B|-------------------------------|
G|-------------------------------|
D|-------------------------------|
A|----------------3-----2--0---3-|
E|-3---3-----0-------------------|


"A___man___da, light of my life,

 GDG
e|-------------------------------------------|
B|-------------------------------------------|
G|-------------------------------------------|
D|-------------------------------------------|
A|-----------------------------3--2--0-------|
E|-3----3----------0----------------------3--|


"Fate should have made you a gentleman's wife."

(Repeat chorus 1x)

Verse 2:
(tab is the same)
"Well, a measure of people don't understand
the pleasures of life in a hillbilly band.
I got my first guitar when I was fourteen;
Now I'm crowdin' thirty, and still wearin' jeans."

(Play Chorus 2x)

Mus. Int.:
 CGCDG
e|-------------------------------------------------------|
B|-------------------------------------------------------|
G|-------------------------------------------------------|
D|-------------------------------------------------------|
A|-3-3-2-3-5___-0-----------------3-3-2-3-5___-0-3-2-0---|
E|----------------3-3-2-3-5______----------------------3-|


(Play chorus 1x with chords only)
(Play chorus 2x normal)

Outro:
e|---------------|
B|---------------|
G|---------------|
D|---------------|
A|-3-2-0---------|
E|-------3-3-3-3-|


If ya have ANY other songs that are just chords,
and you'd like to impress somebody with the lead,
mail my profile, or even send an EMAIL to vot4stu@yahoo.com!


C D G
variations - click chord images
Transpose chords:
Tuning:
Cool service:
View: Size:
A  A  A
Rating:
Layout:
  • Currently 3.1/5 Stars.
  • 1
  • 2
  • 3
  • 4
  • 5
 
Accuracy:
  • Currently 3.1/5 Stars.
  • 1
  • 2
  • 3
  • 4
  • 5
 
click stars to rate
Chordie recommends:
Learn to play guitar with video-based, online guitar lessons at JamPlay.com
Songbook:
Login to add this song to your songbook
Support the artist
Preview/buy this song
MSN Music
Why this non-profit ad?

 
login to add comments/video/corrections