Guitar Tabs, Chords and Lyrics
Major upgrade!! After one year development the new version of Chordie is now online! Please give feedback.


Make You Mine  Donavon Frankenreiter

Guitar Lick 1:
 
 e------------------|
 b--4h5p4-----------|
 g--------4---------|
 d----------6h7p6-4-|
 a------------------|
 e------------------|

Guitar Lick 2:
 
 e--------------------|
 b--------------------|
 g--------------------|
 d--------------------|

a--4h5h7-4h5h7-4h5h7-|
 
 e--------------------|

[A] [Dmaj7] [C#m7] [G] [F#m] [Bm] [Bmadd11/F#] [Bmadd#9/F#]  
 
 e--5---5------4-----3---2---2-------5------------4-|
 b--5---7------5-----3---2---3-------3------------3-|
 g--6---6------4-----4---2---4-------4------------4-|
 d--7---7------6-----5---4---4-------4------------4-|
 a--7---5------4-----5---4---2-------x------------x-|
 e--5---x------x-----3---2---x-------x------------x-|

[########################################]  
[A] [Dmaj7] [C#m7]  
Fr[A]om the b[Dmaj7]ottom of the [C#m7]sea
I [A]see [Dmaj7]you and y[C#m7]ou see me
So[A]met[Dmaj7]imes in [C#m7]contemplation
Co[A]mes [Dmaj7]love from [C#m7]foundation
Bu[F#m]t you got to show me your s[Bm]ign
Sa[F#m]id you got to show me your [Bm]sign
And I'll make you m[A]ine, mi[G]ne, mine, [F#m]mine
I said I'll make you mi[A]ne, min[G]e, mine, m[F#m]ine,
I'm gonna make you m[A]ine, m[G]ine, mine, [F#m]mine
I'm gonna make you m[A]ine, mi[G]ne, mine, m[F#m]ine
S[A]aid you nev[Dmaj7]er had a hom[C#m7]e
I[A] gave you m[Dmaj7]y heart and l[C#m7]et you role
H[A]aven't had [Dmaj7]time to pack your ca[C#m7]se
T[A]hat's alrig[Dmaj7]ht let the sun shine on yo[C#m7]ur face
Bu[F#m]t you got show me your s[Bm]ign
Sa[F#m]id you got show me your [Bm]sign
Bmadd11/F# Bmadd#9/F# (4x)
[Bmadd11/F#]You got to sh[Bmadd#9/F#]ow me
I [Bmadd11/F#]said you got to sh[Bmadd#9/F#]ow me

Important: The song above is NOT stored on the Chordie server. The original song is hosted at www.guitaretab.com. Chordie works as a search engine and provides on-the-fly formatting. Chordie does not index songs against artists'/composers' will. To remove this song please click here.

Text color:
Chord color:
Chord grids: 
Font size:    
Page size: 

A Bm C#m7 Dmaj7 F#m G
Rate #1 of 3 versions

Jango Player

Login - add to songbook

SHARE PAGE  




You need to log in to post comments