eToCache5 = ""; ?> Drivin Thru My Heart by Donnas - guitar chords, guitar tabs and lyrics - chordie

Drivin Thru My Heart

Donnas

 F#EBG#EB
-------------------------------------------------------|
-------------------------------------------------------|
-11--11---9--9------------9--9--9-9--4-----------------|
-11--11-x-9--9-x-9--6-----9--9--9-9--4--4-4-4-4-4-4-4--|
--9---9-x-7--7-x-9--6--6/-7--7--7-7--2--2-2-2-2-2-2-2--|
-----------------7--4--4/------------------------------|


Verse part 1 (2x):
|1st: |2nd time:
B E B | |
---------------------------------------------------------|-----|--------|
---------------------------------------------------------|-----|--------|
---------------------------------------------4-----------|-----|-4-4----|
-4-4-4-4-4-4-4-4-4-4-4-4-4-4-4-4-2--2-----2--4-4-4-4-4-4-|-4-4-|-4-4----|
-2-2-2-2-2-2-2-2-2-2-2-2-2-2-2-2-2--2-2-2-2--2-2-2-2-2-2-|-2-2-|-2-2----|
---------------------------------0--0-0-0-0--------------|-----|--------|

PM.............................. PM. PM.........PM..

Verse Part 2:

 F#A
----------------------------------------------------|
----------------------------------------------------|
----------------------------------------------------|
-4-----------------------------------------------7--|
-4--4-4--4-4-4--4-4--4-4-7-7-7-7-7-7-7-7-7-7-7-7-7--|
-2--2-2--2-2-2--2-2--2-2-5-5-5-5-5-5-5-5-5-5-5-5-5--|


Chorus:

 BAEBF#
--------------------------------------------------------------|
--------------------------------------------------------------|
-4--4-4-2-2--9--9-9-9-9--9-------------11---------------------|
-4--4-4-2-2--9--9-9-9-9--9--9--9--9-9--11---11-13-11-11---11--|
-2--2-2-0-0--7--7-7-7-7--7--9--9--9-9---9----9--9--9--9----9--|
----------------------------7--7--7-7-------------------------|


 BAEF#B
------------------------------------------------------------------|
------------------------------------------------------------------|
-4--4-4-2-2--9--9-9-9-9--9--11------------------------------------|
-4--4-4-2-2--9--9-9-9-9--9--11--13-11-13-11--9--------------------|
-2--2-2-0-0--7--7-7-7-7--7---9---9--9--9--9--9--9-9-9-9-9-9-9-----|
---------------------------------------------7--7-7-7-7-7-7-7-----|


Intro, Verse, Chorus, Intro

Solo:

---------------------------------------------------|
-4---4---------------------------------------------|
-6^--6^6-4-6------4-6^6-4h6-4~-------------4--4-6--|
--------------4h6-------------------4--4h6---------|
--------------------------------4h6----------------|
---------------------------------------------------|
--------------------------------0------------------|
-4--7--4------------------------0------------------|
-6^----6^6-4-6------4-6^6-4-6-4----------4------4--|
----------------4h6------------------4h6----4h6----|
---------------------------------------------------|
---------------------------------------------------|


Verse, Chorus (2x)

End:

 F#EBG#EB
----------------------------------------|
----------------------------------------|
-11--11---9--9------------9--9--9-9--4--|
-11--11-x-9--9-x-9--6-----9--9--9-9--4--|
--9---9-x-7--7-x-9--6--6/-7--7--7-7--2--|
-----------------7--4--4/---------------|				








A B E F# G#
variations - click chord images
Transpose chords:
Tuning:
Cool service:
View: Size:
A  A  A
Rating:
Layout:
  • Currently 2.4/5 Stars.
  • 1
  • 2
  • 3
  • 4
  • 5
 
Accuracy:
  • Currently 2.2/5 Stars.
  • 1
  • 2
  • 3
  • 4
  • 5
 
click stars to rate
Chordie recommends:
Check out JamPlay.com for online video guitar lessons
Songbook:
Login to add this song to your songbook
Support the artist
Preview/buy this song
MSN Music
Why this non-profit ad?

 
login to add comments/video/corrections