Do You Wanna Hit It

Donnas

-------------------------------------------------|

-9^-7--------------------9^-7------------7---9---|
-9^-7-----------7--------9^-7------------7---9---|
------9--9--9p7-7--7-9~-------9--9--9p7----------|
-------------------------------------------------|
-------------------------------------------------|

 EDBABEDBADE
-----------------------------------------------|
-9--7-----------------9--7---------------------|
-9--7-----------------9--7----------7--7--7/9--|
-9--7-9-9--9\-7--7-9--9--7-9-9--9\7-7--7--7/9--|
-7----9-9--9\-7--7-9--7----9-9--9\7-5--5--5/7--|
------7-7--7\-5--5-7-------7-7--7\5------------|


Verse part 1 (2x):

 BEBADAG
---------------------------------------------------------|
---------------------------------------------------------|
------------------9--9-----------------------7--7--------|
-9-----9--9-9-----9--9-9--9\7-----7--7-7-----7--7-7--7\5-|
-9-----9--9-9-----7--7-9--9\7-----7--7-7-----5--5-7--7\5-|
-7-7-7-7--7-7-7-7------7--7\5-5-5-5--5-5-5-5------5--5\3-|

PM. PM. PM. PM.

 GCGE
----------------------------------------------------|
----------------------------------------------------|
----------------5--5--------------------------------|
-----5--5-5-----5--5-5--5\-2------------------------|
-----5--5-5-----3--3-5--5\-2--2--2--2--2--2--2--2/--|
-3-3-3--3-3-3-3------3--3\-0--0--0--0--0--0--0--0---|

PM. PM.

Verse part 2:

G A *Guitar2* G A *Guitar2*
----3-------0----------------3------0-------------|
----3-------2----------------3------2--7----------|
----4----2--2------9---------4---2--2--7-----9----|
-5--5----2-----7h9---9~---5--5---2-------7h9---9~-|
-5-------0----------------5------0----------------|
-3------------------------3-----------------------|


Chorus= Intro Part 2 (2x)

Variation of Intro (2x):
 DE
--------------------------------------------------|
-9^-7--------------------9^-7------------7-7-7/9--|
-9^-7-----------7--------9^-7------------7-7-7/9--|
------9--9--9p7-7--7-9~-------9--9--9p7--7-7-7/9--|
-----------------------------------------5-5-5/7--|
--------------------------------------------------|


Verse 2 (Verse Part 1 (2x), Verse Part 2)

Chorus (Intro Part 2 (2x))

Variation of Intro (2x)

 BEBADAG
-------------------------------------------------------|
-------------------------------------------------------|
-----------9-9-9----------------------7-7-7------------|
-9--9--9-9-9-9-9--9--9-9\7--7--7--7-7-7-7-7--7--7-7\5--|
-9--9--9-9-7-7-7--9--9-9\7--7--7--7-7-5-5-5--7--7-7\5--|
-7--7--7-7--------7--7-7\5--5--5--5-5--------5--5-5\3--|


 GCGEDE
-----------------------------------------------|
-----------------------------9--7-9----9--9-9--|
-----------5-5-5-------------9--7-9----9--9-9--|
-5--5--5-5-5-5-5--5--5-5/--9-9--7-9--9-9--9-9--|
-5--5--5-5-3-3-3--5--5-5/--7-7----7--7-7--7-7--|
-3--3--3-3--------3--3-3/----------------------|


Verse Part 2

Chorus (Intro Part 1 (4x))

End:

--------------------------------------------------|
-9^-7--------------------9^-7---------------------|
-9^-7-----------7--------9^-7---------------------|
------9--9--9p7-7--7-9~-------9--9--9p7-7--7-9~---|
--------------------------------------------------|
--------------------------------------------------|


 DAB
----------------------------------------------------|
-9^-7--------------------9^-7------------7----------|
-9^-7-----------7--------9^-7------------7----------|
------9--9--9p7-7--7-9~-------9--9--9p7--7---x-7-9--|
-----------------------------------------5---x-7-9--|
-----------------------------------------------5-7--|				



A B C D E G
variations - click chord images
Transpose chords:
Tuning:
Cool service:
View: Size:
A  A  A
Rating:
Layout:
  • Currently 3.3/5 Stars.
  • 1
  • 2
  • 3
  • 4
  • 5
 
Accuracy:
  • Currently 5/5 Stars.
  • 1
  • 2
  • 3
  • 4
  • 5
 
click stars to rate
Chordie recommends:
Learn how to play guitar at JamPlay.com
Songbook:
Login to add this song to your songbook
Support the artist
Preview/buy this song
MSN Music
Why this non-profit ad?

 
login to add comments/video/corrections