Chordie logo


Get It Right   Dont Look Down



BAND  : Don't Look Down
ALBUM : Start The Show ('2002)
SONG  : Get It Right(Track #2/13)

this is an unknown blink 182 style punk band. if u have kazaa download
this song its awesome. Hope u like it its my first tab

*= palm mute

intro/outro
e-----------------------------------------------------
b-----------------------------------------------------
g-------4444--------666-------------------------------
d-2222--4444--4444--666--77---------------------------x2
a-2222--2222--4444--444--77---------------------------
e-0000--------2222-------55---------------------------

 verse 1 & 2
e[-------------------]  e[----------------------------------------------
b[-------------------]  b[----------------------------------------------
g[----4------66------]  g[------44-------66-----------44-------66-------
d[-22-4-2-44-66-77-6-]  d[-22-2-44-22-44-66-77-6-22-2-44-22-44-66-77-6--
a[-22-2-2-44-44-77-6-]  a[-22-2-22-22-44-44-77-6-22-2-22-22-22-44-77-6--
e[-00---0-22----55-4-]  e[-00-0----00-22----55-4-00-0----00-22----55-4--
      * * ** ** **         ** * ** ** ** ** **   ** * ** ** ** ** **
---------------------------]
---------------------------]
------44-------66----------]
-22-2-44-22-44-66-77-------]
-22-2-22-22-44-44-77-------]
-00-0----00-22----55-------]
 ** * ** ** ** 


chorus
e[-------------------------------------]
b[-------------------------------------]
g[-----4x8-----6x4---------------------]
d[2x8--4---4x8-6---7x4-2---------------]x2
a[2----2---4---4---7---2---------------]
e[0--------2-------5---0---------------]

-------]
verse-2]
-------]

bridge x2
e[----------------------------------------]  e[---------------------------]
b[----------------------------------------]  b[---------------------------]
g[-----4444------66-----------------------]  g[-----4444------66----------]
d[2222-4444-4444-66-77-7--66-6------------]  d[2222-4444-4444-66----------]
a[2222-2222-4444-44-77-7--66-6------------]  a[2222-2222-4444-44----------]
e[0000------2222----55-5--44-4------------]  e[0000------2222-------------]
                    **    **

-------]
chorus-]
-------]

---------------------]
-outro-same-as-intro-]
---------------------]



Important: The song above is NOT stored on the Chordie server. The original song is hosted at www.guitaretab.com. Chordie works as a search engine and provides on-the-fly formatting. Chordie does not index songs against artists/composers will. To remove this song please click here.

This song is displayed as text-only. Transposing and tuning is only available for chordpro-songs.

Login - add to songbook

Rating click stars to rate

Layout
Accuracy

SHARE PAGE  




You need to log in to post comments