Guitar Tabs, Chords and Lyrics


Indian Summer   Doors



The Doors: Indian Summer, off Morrison Hotel

Transcribed for two guitar parts:
	G1 (Guitar 1): Dropped D Tuning (D A D G B E)
	G2 (Guitar 2): Open D Tuning (D A D F# A D)

Tabbed by: Steve Dubuque (sdubuque_vp@hotmail.com)


Riffs/Fills: 	G1, intro/verse
		G1, chorus

		G2, intro
		G2, verse
                G2, chorus

Note: not intended to be exact... the song is played and flows in an open tuning... 
out what works for you, just using this tab as a guideline. Don't use a pick.

G1, intro/verse

---------------------------------------------------------------|
---------------------------------------------------------------|
---------------------------------------------------------------|
-----0------0--------------------------------------------------|
---0------0----------------------------------------------------|
-4------4------------------------------------------------------|


                  (repeated)


G2, intro

D-----7----4--2-----------------------0h2-(p0)-----0-------0-----|
A-------------------0h4--0----0h4----(0)--------4--0-----0-------|
F#-----------------(0)-------(0)-----------------------0---------|
D-----0------------(0)-------------------------------------------|
A----------------------------------------------------------------|
D----------------------------------------------------------------|


G2, verse

	I---ii---   loo-ooove you


D-----------0---------0------------7---4-------0---------0-------|
A---------0---------0----------------------7-----------0---------|
F#------0---------0---------------------------------0------------|
D---------------0------------------------------------------------|
A----------------------------------------------------------------|
D----------------------------------------------------------------|


	Th---e best.

D-------0---------0h2--2h4p2p0---0-----0-----0-------------------|
A----4-(0)-------(0)--(0)------4----0----------------------------|
F#-----------0------------------------------0--------------------|
D----------0-----------------------------------------------------|
A----------------------------------------------------------------|
D----------------------------------------------------------------|




Chorus

G2, chourus

D--------------0-----0h2---------0--------0--------------------|
A-------0h2----------2-----------0------0----------------------|
F#--0h1-----------1--------------0----0------------------------|
D---2--------2-------------------0--0--------------------------|
A--------------------------------0-----------------------------|
D--(2)---------------------------0-----------------------------|


That I meet        in the        summer


G1, chorus

---------------------------------------------------------------|
---------------------------------------------------------------|
---------------------------------------------------------------|
---------2--2------------2--2-----------0------------0---------|
----0----------0---0----------------0------0---0---0---0---0---|
---------------------------------0-----------0---0-------0-----|

I love you the best
Better than all the rest.
I love you the best
Better than all the rest.
That I meet in the summer.
Indian Summer.
That I meet in the summer.
Indian Summer.
I love you the best


Important: The song above is NOT stored on the Chordie server. The original song is hosted at www.guitaretab.com. Chordie works as a search engine and provides on-the-fly formatting. Chordie does not index songs against artists/composers will. To remove this song please click here.

This song is displayed as text-only. Transposing and tuning is only available for chordpro-songs.

Login - add to songbook

Rating click stars to rate

Layout
Accuracy

SHARE PAGE  




You need to log in to post comments