Guitar Tabs, Chords and Lyrics


We Could Be So  Doors



e|--------------------------------


b|--------------------------------


g|--------------------------------


d|-------5---3------3-------------


a|--------------5----------3------


E|--3-------------------6---------

[Am]Tell you lies, Tell you [G]wicked lies
[Am]Tell you lies, I tell yo[G]u wicked lies[Am]
I don't know the words to the next part but the progression is:
D\\\ Am\\ D\\\ Am\\ G\ G\ Am
The next part is the same as the intro theme only transposed to the 5th fret:
e|-----------------------------------
b|-----------------------------------
g|-----------------------------------  play 4x, same as
d|-------7---5-------5---------------          above
a|---------------7-----------5-------
E|--5--------------------8-----------

Then:
[Bm]Tell you lies, [A]tell you wicked lies
[Bm]Tell you lies, tell you [A]wicked lies[Bm]
Again, I don't know the words to this part but the progression is:
E\\\ Bm\\ E\\\ Bm\\ A\ A\ Bm
Once again follow the main theme for this part:
e|---------------------------------
b|---------------------------------
g|---------------------------------
d|------9---7-------7-------------- 4x
a|--------------9----------7-------
E|--7------------------10----------

After this there is a short guitar solo in F#(14th fret). I'm pretty sure Robby uses an echoplex but I guess any echo effect will work. Immediately following the solo is this little progression: Am\ G\ Am
The last part is just the above theme and there you have it.
Comments and questions can be sent to wildchild_64@hotmail.com
If anyone could possibly post the solo to Touch of Grey by the Grateful Dead, it would be greatly appreciated.
if this dosen't look right, try viewing it in Courier font
--====================987654321_0==_
Content-Type: text/plain; charset="us-ascii"
--====================987654321_0==_--

Important: The song above is NOT stored on the Chordie server. The original song is hosted at www.guitaretab.com. Chordie works as a search engine and provides on-the-fly formatting. Chordie does not index songs against artists'/composers' will. To remove this song please click here.

Text color:
Chord color:
Chord grids: 
Font size:    
Page size: 

A Am Bm G
variations - click chord images

Login - add to songbook

Transpose chords

Tuning

Rating click stars to rate

Layout
Accuracy

SHARE PAGE  




You need to log in to post comments