Guitar Tabs, Chords and Lyrics


Ambition  Doves

----------------------------------------------------------------------------



----------------------------------------------------------------------------

e|---5----2----5----2----4----0----9-----7--------------------------------|
B|---5----2----7----3----4----0----9-----9--------------------------------|
G|---6----2----7----4----4----1----10----9--------------------------------|
D|---7----4----7----4----6----2----11----9--------------------------------|
A|---7----4----5----2----6----2----11----7--------------------------------|
E|---5----2--------------4----0----9--------------------------------------|
------
[A]    [F#m]      [D]    [Bm]                       
Verse:
------


[A]So...Ambition [G#m]cut you [F#m]down

Aint a l[E]ove as [D]perfect
Everyb[C#m]ody k[Bm]nows it
Something d[C#m]rove you d[A]own  [F#m]
[D]Something as good, something new [C#m]
[Bm]Somebody good, our...[C#m]
D F#m* E* D
Ambition cuts you down

E* (?) D F#m* E* D
There's not a love that's perfect

F#m* E* A
But I, I live in hope

(BASS)

[D]Somebody good, somebody new, [C#m]

Bm C#m D F#m* E* D
Something as good, something that's mine

D F#m* E* D
Aint a love that's perfect

F#m* E* Bm
Everybody knows it

Ambition c[C#m]uts us d[A]own.

Important: The song above is NOT stored on the Chordie server. The original song is hosted at www.guitaretab.com. Chordie works as a search engine and provides on-the-fly formatting. Chordie does not index songs against artists'/composers' will. To remove this song please click here.

Text color:
Chord color:
Chord grids: 
Font size:    
Page size: 

A Bm C#m D E F#m G#m
variations - click chord images

Login - add to songbook

Transpose chords

Tuning

Rating click stars to rate

Layout
Accuracy

SHARE PAGE  




You need to log in to post comments