Chordie logo


Firesuite   Doves



-----------------------------------------------------
		FIRESUITE- The Doves
-----------------------------------------------------
Tabbed by: stef
Email: stef_tan-dodsnbev@powerup.com.au

Tuning: standard

It sounds better if you only play the middle four strings in the rhythm section;
(the first two times you play E as it starts up I would only play the A,D,G strings)

 	E	C#m	C#m	F#

e|----(0)------(4)-----(4)----(2)------------------------|
B|-----0--------5-------5------2-------------------------|
G|-----1--------6-------6------3-------------------------|
D|-----2--------6-------6------4-------------------------|
A|-----2--------4-------4------4-------------------------|
E|----(0)-------x-------x-----(2)------------------------|


Then with a tremelo bar:
(with a bit of reverb & a whole lot of attitude)

e|---------------------------------------------------|
B|--0~------2~---------------------------------------|
G|----1~—1~------------------------------------------|
D|---------------------------------------------------|
A|---------------------------------------------------|
E|---------------------------------------------------|



Important: The song above is NOT stored on the Chordie server. The original song is hosted at www.guitaretab.com. Chordie works as a search engine and provides on-the-fly formatting. Chordie does not index songs against artists/composers will. To remove this song please click here.

This song is displayed as text-only. Transposing and tuning is only available for chordpro-songs.

Login - add to songbook

Rating click stars to rate

Layout
Accuracy

SHARE PAGE  




You need to log in to post comments