eToCache5 = ""; ?> Black And White Town Acoustic by Doves - guitar chords, guitar tabs and lyrics - chordie

Black And White Town Acoustic

Doves

 Dm7Em7Fadd9AmGadd9Cmaj7
e|---5---7----3----5---5-----3---|
B|---6---8----1----5---3-----5---|
G|---5---7----2----5---4-----4---|
D|---7---9----3----7---5-----5---|
A|---5---7----X----7---X-----3---|
E|---X---X----X----5---X-----X---|


intro: Dm7 Em7 Fadd9 (x2)

 Dm7Em7Fadd9
 Here comes the action
 Dm7Em7Fadd9
 Here comes at last
 Dm7Em7Fadd9
 Lord give me reaction
 Dm7Em7Fadd9
 Lord give me your chance

 AmGadd9Fadd9Em7
 You should   follow  me   down

 Dm7Cmaj7
 In satellite towns
 Dm7Cmaj7
 There's no colour and no sound
 Dm7Cmaj7Fadd9
 I've been ten feet underground      
 Gadd9
 I gotta get out of this satellite town

repeat intro (x2)

 Dm7Em7Fadd9
 Here comes some action
 Dm7Em7Fadd9
 First time in my life
 Dm7Em7Fadd9
 I gotta get up to get compensation
 Dm7Em7Fadd9
 I gotta get up to get this to late

 AmGadd9Fadd9Em7
 You should   follow  me   down

 Dm7Cmaj7
 In satellite towns
 Dm7Cmaj7
 There's no colour and no sound
 Dm7Cmaj7Fadd9
 I've been ten feet underground      
 Gadd9
 I gotta get out of this satellite town

repeat intro (x2)
intro:

 1212121212121212
e|--5--5---7--7---3--3--3--3-----8--5---7--7---3--3--3--3----|
B|--6--6---8--8---1--1--1--1-----6--6---8--8---1--1--1--1----|
G|--5--5---7--7---2--2--2--2-----5--5---7--7---2--2--2--2----|
D|--7------9------3--3--3--3-----7------9------3--3--3--3----|
A|--5------7---------------------5------7--------------------|
E|--5------7---------------------5------7--------------------|

Dm7 Em7 Fadd9 Dm7* Em7 Fadd9

Dm7* -> most of the time during the intro he puts his little finger in the 1st string on the 8th fret.


Am Cmaj7 Dm7 Em7 Fadd9 Gadd9
variations - click chord images
Transpose chords:
Tuning:
Cool service:
View: Size:
A  A  A
Rating:
Layout:
  • Currently 3/5 Stars.
  • 1
  • 2
  • 3
  • 4
  • 5
 
Accuracy:
  • Currently 3.4/5 Stars.
  • 1
  • 2
  • 3
  • 4
  • 5
 
click stars to rate
Chordie recommends:
Learn to play guitar with video-based, online guitar lessons at JamPlay.com
Songbook:
Login to add this song to your songbook
Support the artist
Preview/buy this song
MSN Music
Why this non-profit ad?

 
login to add comments/video/corrections