Guitar Tabs, Chords and Lyrics


Kangna Acoustic  Dr Zeus

 4-----------------------4--------------------2------x-|


 5-----------------------4--------------------2------4-|


 4-----------------------4--------------------2------x-|

6-----------------------6--------------------4------4-|
4-----------------------6--------------------4------2-|
------------------------4--------------------2------x-|
------------------------------------------------------------|
-5------5---------5--4------------2------------------5----5-|
-4----4---------4----4----4-----4-2---2----2--4---4--4---4--|
-6--6---------6------4---4-----4--2--2----2---4--4---6--6---|
-4----------4--------6--6-----6---4-4----4----6-6----4------|
---------------------4------4-----2-----2-----4-------------|
4--4--2--|
4--2--2--|
4--4--2--|
6--6--4--|
4--6--4--|
---4--2--|
[Cm7]Addiyan ton ki [B]paiyan jhanjara [G#m]laung mare lishkare
[Cm7]Addiyan ton ki [B]paiyan jhanjara [G#m]laung mare lishkare
Chorus:

[G#m]Kagna tera ni[B] sanu kare[Cm7] ishaare
[G#m]Kagna tera ni[B] sanu kare[Cm7] ishaare

[Cm7]    [-]  [G#m]    [-]  [F#m]    [-]  [G#m]    [-]  [Cm7]             
[Cm7]Kagne de vitch lage [G#m]naag sat rang ni
[F#m]Kale kale aashiqan to[G#m] dil ehe [Cm7]mange ni
[G#m]Kagne de vitch lage n[Cm7]aag sat rang ni
[G#m]Kale kale aashiqan to[Cm7] dil ehe mange ni
[Cm]apne es [B]kagne nu [G#m]saam ke rakh mutiyaare
[Cm]apne es [B]kagne nu [G#m]saam ke rakh mutiyaare
(Chorus)

Distant Voice accompanied by acoustic guitar:
Cm7 - B - G#m - Cm7 (2x)
F#m - G#m - Cm7 (2x)

So you can use the same combination of chords for the chorus , stanzas , bridges etc.
a fun song to play with friends , or alone as well. Hope you enjoyed this tab.

Sahil Jain
Email: sahiljain88@gmail.com
MSN ID: sahiljain88@gmail.com
Feel free to mail any further questions

Important: The song above is NOT stored on the Chordie server. The original song is hosted at www.guitaretab.com. Chordie works as a search engine and provides on-the-fly formatting. Chordie does not index songs against artists'/composers' will. To remove this song please click here.

Text color:
Chord color:
Chord grids: 
Font size:    
Page size: 

B Cm Cm7 F#m G#m
variations - click chord images

Login - add to songbook

Transpose chords

Tuning

Rating click stars to rate

Layout
Accuracy

SHARE PAGE  




You need to log in to post comments