Guitar Tabs, Chords and Lyrics


Black Fire   Dragonforce



This is what i have so far, solo is still a pain to work out... as always

oh by the way, this is from memory, i didn't have the song with me when i made this.

Key:
9t10   = Trill
(9h10) = Very faint and probably a 16th
*8*    = Pinch Harmonic
7h8    = Hammer on
8p7    = Pull off
8~     = Bend up and down to give it that wave effect, idk what it's called
.      = Palm Mute

||
o|
||     = Repeat
||
o|
||

Intro:

e|---------------------------------------------------------------------------|
b|-10-8-10-8-10-8----------------8-10-8----10-8-10-8-10-8----8-10-11-10-8-10-|
g|----------------10--------7-10--------10----------------10-----------------|
d|-------------------(7h10)--------------------------------------------------|
a|---------------------------------------------------------------------------|
E|---------------------------------------------------------------------------|

e|---------------------------------------------------------------|
b|-11--10-8-10-8-10-8----------------8-10-8----10-8-10-8-10-8----|
g|--------------------10--------7-10--------10----------------10-|
d|-----------------------(7h10)----------------------------------|
a|---------------------------------------------------------------|
E|---------------------------------------------------------------|

e|------------------------------------|
b|-8-10-11-10-8-10-11-10~~~~~-10-8-10-|
g|------------------------------------|
d|------------------------------------|
a|------------------------------------|
E|------------------------------------|

Verse:
                    .    .. .   x4
e|------------------------------||
b|------------------------------o|
g|------------------------------||
d|-7----------------5-5-----5-5-||
a|-5555555555555555-3-3--33-3-3-o|
E|------------------------------||

Chorus:

e|-------------------------------------------------------------------|
b|-------------------------------------------------------------------|
g|-------------------------------------------------------------------|
d|-3------------------7--------------7-3---------------2-------------|
a|-111111111111111111-5555555555555555-111111111111111-000000000000--|
E|-------------------------------------------------------------------|

Melody:

e|-----------------------------------------------8--------------------------|
b|-10-10-10-11-10-------8-10-8-10-10-10-11-10------11-10-8--11-10-8---------|
g|----------------10-10-----------------------10--------------------10-8-10-|
d|--------------------------------------------------------------------------|
a|--------------------------------------------------------------------------|
E|--------------------------------------------------------------------------|

e|-------------------------------------------|
b|-8-10-8-10---------8---------------10-8-10-|
g|------------7-9-10---10-9t10---------------|
d|-------------------------------------------|
a|-------------------------------------------|
E|-------------------------------------------|

Bridge:

e|-------------------------------------------------------------|
b|-10---8------------------8-10-11-10-8--8-10-10-8-------------|
g|--------7-7h10p7----7-10-------------------------7-7h10p7----|
d|-----------------10---------------------------------------10-|
a|-------------------------------------------------------------|
E|-------------------------------------------------------------|

e|-----------------------------|
b|------8-10-11-10-8-10-11-10--|
g|-7-10------------------------|
d|-----------------------------|
a|-----------------------------|
E|-----------------------------|

Order played:

Intro (duh)
Verse
Chorus
Verse 
Chorus
Verse
Melody
Bridge

I haven't figured out the rest yet, but i AM working on it! i will post what i figure 


Important: The song above is NOT stored on the Chordie server. The original song is hosted at www.guitaretab.com. Chordie works as a search engine and provides on-the-fly formatting. Chordie does not index songs against artists/composers will. To remove this song please click here.

This song is displayed as text-only. Transposing and tuning is only available for chordpro-songs.

Login - add to songbook

Rating click stars to rate

Layout
Accuracy

SHARE PAGE  




You need to log in to post comments