Guitar Tabs, Chords and Lyrics


Change Of Season  Dream Theater

[F5]If they dro[A#5]pped the bo[C5]mb, [A#5]would you l[F5]ove me then
[A#5]If I was [C5]wrong, [A#5]would it be [F5]okay
[A#5]Well I can[C5] see th[A#5]e holes in [F5]everyone
[F5]A change[A#5] of [C5]sea--[A#5]son (RIFF[F5] 1 enters)

For the second verse play the same power chords with the same timing.
2nd verse
If I found a way to make amends would you say I was too late
Well I can find the holes in anyone, a change of sea--son

Chorus: (again chords played lightly)
[C5]I feel like I'm losing for money,[G5] I feel like I'm losing for free
[A#5]I feel older than the dead angel on my shoulder[F5] claims to be
[C5]I feel like we're drinking and driving, [G5]I feel like we're running into walls
[A#5]I feel like swimming in your apathy you know I'd love to be your [F5]conscience
When it calls

Interlude: D5, C5, so on
e: --------------------------------------------------------|
B: 7--7----5--5-7-5-7-5-3-5-7|-5-7-5-3-5-7--7--7---5-------|
G: 7--7----5--------------------------------7--7---5-------|
D: 7--7----5--------------------------------7--7---5-------|
A: 5--5----3--------------------------------5--5---3-------|
E: --------------------------------------------------------|


3rd verse- no guitar
If they made me crawl, would you love me then, if I was small
Would it be okay, well I can find the need in everyone, a change of season
A change of sea--son (on the 2nd season the Matt plays the power chord riff)

(Chorus again)
The BIG solo: after 5h3, ?
e ---^-8-8------------------------------|-----------|
B ---8--8-8-6--5h6h5-3h5h3--5h6h5-3h5h3-|-----------|
G 10--------*-------5------------5------|-----------|
D **------------------------------------|-----------|

fast fast
then
e 12-12-12-11-11-11-9-9-9-7-7-7-5-5-3-5-0--^^-^^-----------------------|
B -----------------------------------------14-14-13h12h13h14-----------|
G ---------------------------------------------------------------------|
D ---------------------------------------------------------------------|

after 11, ? then
e --13--14--15--14-----13---|-16-16-16-16-16-------|
B 11--12--12--12--12-11--11-|-^^-^^-^^-^^-fast-----|
G --------------------------|----------------------|
D --------------------------|----------------------|


After the solo is the bridge
[C5]I think that somebody's missing, [G5]I think that somebody's missing
[A#5]I think that somebody's missing, [F5]I think that somebody's missing

Ending: ???
B 5-7-5-7-5-3-5-7|-5-7-5-3-5-7|-5-7-5-7-9-7-5--7--|
G ---------------------------------------------7--|
D ---------------------------------------------7--|
A ---------------------------------------------5--|


Someone fill me in on some help, cuz this song rules!
Send 'em to Mitchell_J@hotmail.com

Important: The song above is NOT stored on the Chordie server. The original song is hosted at www.guitaretab.com. Chordie works as a search engine and provides on-the-fly formatting. Chordie does not index songs against artists'/composers' will. To remove this song please click here.

Text color:
Chord color:
Chord grids: 
Font size:    
Page size: 

A#5 C5 F5 G5
variations - click chord images

Login - add to songbook

Transpose chords

Tuning

Rating click stars to rate

Layout
Accuracy

SHARE PAGE  




You need to log in to post comments