eToCache5 = ""; ?> insertsongandartist - guitar chords, guitar tabs and lyrics - chordie

Hollow Years

Dream Theater

 Dm(9Fmaj9/CGm(9Gm/AA9Am11Dm(9)/ABbmaj(#11
E|--------|---------|------3-|-------|-----|-------|-------|----------
B|---6----|-----6---|------3-|--8----|--5--|---3---|--6----|---6-------
G|---7----|-----0---|------3-|--7----|--6--|---5---|--7----|---7-------
D|---7----|-----7---|------5-|--8----|--5--|---5---|--7----|---7-------
A|---7----|-----0---|------7-|-------|-----|-------|--x----|---x-------
E|--------|-----8---|------3-|-------|-----|-------|--5----|---6-------


Dm Bbmaj7 C A7type 2 Bb Csus F/A or F Dm/C
E|--1--|---1-----|-------|----------|-------|---1---|---1-----|---1----
B|--3--|---3-----|---1---|----2-----|---3---|---1---|---1-----|---3----
G|--2--|---2-----|---0---|----------|---3---|---0---|---------|---2----
D|-----|---3-----|---2---|----2-----|---3---|---3---|---2-----|---0----
A|-----|---1-----|---3---|----------|---1---|---3---|---3-----|---3----
E|-----|---------|-------|----------|-------|-------|---------|--------


 G/BDsusEmB7Em/DA/C#G
E|---3--|--3----|------|----2--|----0---|------|---3-------
B|---3--|--3----|------|----4--|----0---|--2---|---3-------
G|---0--|--2----|------|----2--|----0---|--2---|---0-------
D|---0--|-------|--2---|----4--|----0---|--2---|---0-------
A|---2--|-------|--2---|----2--|----x---|--4---|---2-------
E|---3--|-------|------|-------|----x---|------|---3-------


listen to the song for correct timing
paborito ko.....

Intro:
Dm(9)- Fmaj9/C- Gm(9)- Gm/A- A7- Dm(9)-Am11

Dm(9)- Fmaj9/C- Gm(9) –Gm/A- A7- Dm(9)
Dm(9)/A –Bbmaj7(#11)

 DmF(9)/CGm(9
 He's just the kind of man        

You hear about
 BbCsus(9Dm
 Who leaves his family              
 Am11
For an easy out
 DmF(9)/CGm/A
 They never saw the signs             

He never said a word
 BbC9A7
 He couldn't take another day    

Dm Bbmaj7 C A7type2
Carry me to the shoreline
Dm Bbmaj7 C A7type2
Bury me in the sand
Dm Bbmaj7 C A7type2
Walk me across the water
 BbCsusC
And maybe you'll understand     

 F/ABb
Once the stone 
 Csus
You're crawling under
 F/ABbCsusDm
 Is lifted off your shoulders    
 F/ABbCsus
 Once the cloud that's raining
A7type2 Dm Dm/C
Over your head disappears
 G/B
The noise that you'll hear
 BbCsus
Is the crashing down of hollow years

 DmF(9)/CGm(9
 She's not the kind of girl       

You hear about
 BbCsus(9Dm
 She'll never want another          
 Am11
She'll never be without
 DmF(9)/CGm/A
 She'll give you all the signs        

She'll tell you everything
 BbC9A7
 Then turn around and walk away  

Dm Bbmaj7 C A7type2
Carry me to the shoreline

Dm Bbmaj7 C A7type2
Bury me in the sand

Dm Bbmaj7 C A7type2
Walk me across the water
 BbCsusC
 And maybe you'll understand 

 F/ABb
 Once the stone
 Csus
You're crawling under
 F/ABbCsusDm
 Is lifted off your shoulders    
 F/ABbCsus
 Once the cloud that's raining
A7type2 Dm Dm/C
Over your head disappears
 G/B
The noise that you'll hear
 BbCsus
Is the crashing down of hollow years

Dm Bbmaj7 C A7type2
Carry me to the shoreline

Dm Bbmaj7 C A7type2
Bury me in the sand

Dm Bbmaj7 C A7type2
Walk me across the water
 BbCsusC
 And maybe you'll understand 

 G/BC
 Once the stone 
 Dsus
You're crawling under
 G/BCDsusEm
Is lifted off your shoulders    
 G/BCDsus
 Once the cloud that's raining
 B7EmEm/D
Over you head disappears
 A/C#
The noise that you'll hear
 CDsus
Is the crashing down of hollow years

 GEmCDsus
 Once the stone you’re crawling under
 GEmCDsus
 Once the stone you’re crawling under
 GEmCDsus
 Once the stone you’re crawling under
 GEmCDsus
 Once the stone you’re crawling under
 GEmCDsus
 Once the stone you’re crawling under
 GEmCDsus
 Once the stone you’re crawling under
 GEmCDsus
 Once the stone you’re crawling under

this is my first attemp to pass a chords of this song hope you like it...
comments, sugestions just email me at rockers_zelda143@yahoo.com
hope you like this tab enjoy