First Orgasm

Dresden Dolls

 AAmajdimF#mD
e----------------------------------------------------------------------|
b----------------------------------------------------------------------|
g----------------------------------------------------------------------|
d----------------------------------------------------------------------|
a-7---7---7---7----6---6---6---6---9---9---9---9---9----9----9----9----|
e---9---9---9---9----9---9---9---9---9---9---9---9---10---10---10---10-|


it is a thursday
i get up early
it is a challenge
i'm usualy lazy

i make some coffee
i eat some rice chex
and then i sit down
to check my inbox

chorus 1:
 GD
only read a word or two 

 F#mD
stare across the street and see the faces and the blue

 GD
the first orgasm of the morning

 F#mD
is cold and hard as hell 

 GD
there wont be any second cumming

 F#mD
as far as i can tell...

verse 3:
(same riff as verse 1 & 2)

i arch my back coz
i'm very close now
its very cold here
by the window
there are some school kids
yelling and running
i barely notice
that i am cumming

chorus 2(same chords as chorus 1):

the first orgasm of the morning
is like a fire drill
its nice to have a little warning
but not enjoyable

 F#mED
     i am too busy to have friends 
 F#mED
lover would just complicate my plans 
 F#mED
so i will never look for love again 
 F#mED
i'm taking matters into my own hands 
 F#mED
i'm taking matters into my own hands 

bridge:
e---------------------------------|
b---------------------------------|
g---------------------------------|
d---------------------------------| x2
a-7---7---7---7---6---6---6---6---|
e---9---9---9---9---9---9---9---9-|


 AF#mD
 i think i could last at least a week without someone to hold me

 AF#mD
 i think i could last at least a week without someone to hold me

 D
 wont you hold me?

 D
 wont you hold me?


A D E F#m G
variations - click chord images
Transpose chords:
Tuning:
Cool service:
View: Size:
A  A  A
Rating:
Layout:
  • Currently 3.2/5 Stars.
  • 1
  • 2
  • 3
  • 4
  • 5
 
Accuracy:
  • Currently 3.6/5 Stars.
  • 1
  • 2
  • 3
  • 4
  • 5
 
click stars to rate
Chordie recommends:
Learn to play songs at Jamplay.com with video guitar lessons
Songbook:
Login to add this song to your songbook
Support the artist
Preview/buy this song
MSN Music
Why this non-profit ad?

 
login to add comments/video/corrections