You All Everybody

Driveshaft

 BBBBBBB
--------------------------|
--------------------------|
-4-4-4-4-4-4--------------|
-4-4-4-4-4-4--------------|(palm Muted) Listen to the song for timing, repeat a few times
-2-2-2-2-2-2--------------|
--------------------------|


Riff:
 BE
----------------------|
----------------------|
---------------9-9-9--|
-9-9-9-9-9-9-9-9-9-9--|    X 2
-9-9-9-9-9-9-9-7-7-7--|
-7-7-7-7-7-7-7--------|


then:
 C#ABE
--------------------------------------------------|
--------------------------------------------------|
-------------------------------------------9-9-9--|
-11-11-11-11-11---7-7-7-7-7--9-9-9-9-9-9-9-9-9-9--|
-11-11-11-11-11---7-7-7-7-7--9-9-9-9-9-9-9-7-7-7--|
-9--9--9--9--9----5-5-5-5-5--7-7-7-7-7-7-7--------|


 BE
 You All Everybody   
 BE
 You All Everybody   
 C#ABE
 You acting stupid, you wear expensieve clothes  
 BE
 You All Everybody   
 BE
 You All Everybody   
 C#ABE
                            You All Everybody    

Enjoy

Peace

Cammies













A B C# E
variations - click chord images
Transpose chords:
Tuning:
Cool service:
View: Size:
A  A  A
Rating:
Layout:
  • Currently 3.3/5 Stars.
  • 1
  • 2
  • 3
  • 4
  • 5
 
Accuracy:
  • Currently 0/5 Stars.
  • 1
  • 2
  • 3
  • 4
  • 5
 
click stars to rate
Chordie recommends:
Learn to play this song & others via video guitar lessons at JamPlay.com
Songbook:
Login to add this song to your songbook
Support the artist
Preview/buy this song
MSN Music
Why this non-profit ad?

 
login to add comments/video/corrections