Guitar Tabs, Chords and Lyrics


one  Dropkick Murphys

[D#]You said we die alone in this [A#]case you were right
No [C]friends by your side no [D#]family in [A#]sight
There’ll be [C]no talking your way [A#]out this time
So [C]don’t count the [A#]cash ‘cause you le[D#]ave it be[C]hind

His friends come and go like the seasons and tide
He can’t keep a woman they all realize
He loves, leaves them, takes what he needs
He’s loyal to no one, no one at all

You were brought up well still in spite of it all
You’re touched by nothing, watch a man fall
Put a foot on his back to get a better view
‘cause you’re loyal no one, no one but you!

Chorus

He was broken and tired wouldn’t take a hand
Their kindness was simple he couldn’t understand
See it’s hard to have faith in something so new
When you’re loyal to no one, no one but you!

Chorus

Mandolin bit, played throughout the song:

e-----------------------------------------------------------------|
B-----------------------------------------------------------------|
G----------------------0-----------0---------3--------------------|
D------------0-1-1-3333-3-1--1-3333-3-1----3-1-5------------------|
A-1-3333-1-3---------------3-----------3-1-1---3------------------|
E-----------------------------------------------------------------|
e-----------------------------------------------------------------|
B-------3-------------------------3---------44--------------------|
G-3-5555-5-3----------------3-5555-5-3---333--5-------------------|
D-----------5-5-3333-5-3---------------5--------------------------|
A-----------------------6-3---------------------------------------|
E-----------------------------------------------------------------|				


Important: The song above is NOT stored on the Chordie server. The original song is hosted at www.guitaretab.com. Chordie works as a search engine and provides on-the-fly formatting. Chordie does not index songs against artists'/composers' will. To remove this song please click here.

Text color:
Chord color:
Chord grids: 
Font size:    
Page size: 

A# C D#
variations - click chord images

Login - add to songbook

Transpose chords

Tuning

Rating click stars to rate

Layout
Accuracy

SHARE PAGE  




You need to log in to post comments