Guitar Tabs, Chords and Lyrics


State Of Massachussetts  Dropkick Murphys

----------------------------------------------------------



----------------------------------------------------------

e|-------------------------------------------------------------|
B|-333-3-------------------------------------------------------|
G|-------2-0-------0-2-----------------------------------------|
D|------------3-33-------------------------------- x 2-------|
A|---------------------3-33-0-3-5555---------------------------|
E|-------------------------------------------------------------|
e|-------------------------------------------------------|
B|-3-33-------6-66-5-3-1-11---1-1h3-33-------------------|
G|------2-0--------------2-------------------------------|
D|-------------------------------------------------------|
A|-------------------------------------------------------|
E|-------------------------------------------------------|
e|---------------------------------------------------------|
B|---------------------------------------------------------|
G|----7p0--9p0-10p0--14p0--12p0--10p0-9p0--5p0-------------|
D|--0-----0----0-----0------0------0-----0----0-----0------|
A|---------------------------------------------------------|
E|---------------------------------------------------------|
[E7]    [E7/D]     [E7/C]                            
Am C G Am x4

[Am]She had excuses and she chose to use th[C]em
[G]She was the victim of unspeakable ab[Am]uses
[Am]Her husband was violent, malicious a[C]nd distant
[G]Her kids now belong to the state of Ma[Am]ssachusetts!

[Am]     [C]  They've been take[G]n away![Am]!
[Am]    [C]    They've been ta[G]ken away!![E7]
(Chorus:)

[Am]Billy was the bright one, [G]Tommy'[C]s off his head
[F]Mother love[C]d them both the same
At l[G]east thats what she said
[Am]I don't predict the future       [G]
[C]I don't care about the past
[F]Send them both to D.S.S    [C]
[G]Now you had your chance
[Am]The posion stole your babies         [G]
[C]The judges took your rights
[F]You can have your children o[C]r the nigh[G]t!!!

Am C G Am x4

[Am]I supposed you've been a victim
Though I suspe[C]ct you may have lied
Have you lost a[G]ll ambition
[Am]Won't you give this thing a try
[Am]If you can't and you fail won't be the on[C]ly loser
[G]These kid don't stand a chance with you in their fu[Am]ture!!

[Am]     [C]  They've been take[G]n away![Am]!
[Am]     [C]  They've been take[G]n away!!
[F]       [G]        [F]       [G]               
(Chorus:)

[Am]Billy was the bright one, [G]Tommy'[C]s off his head
[F]Mother love[C]d them both the same
At l[G]east thats what she said
[Am]I don't predict the future       [G]
[C]I don't care about the past
[F]Send them both to D.S.S    [C]
[G]Now you had your chance
[Am]The posion stole your babies         [G]
[C]The judges took your rights
[F]You can have your children o[C]r the nigh[G]t!!!

e|---------------------------------------------------------|
B|---------------------------------------------------------|
G|----7p0--9p0-10p0--14p0--12p0--10p0---7-7---------|  x 2-|
D|--0-----0----0-----0------0------0-----0-----------------|
A|---------------------------------------------------------|
E|---------------------------------------------------------|



Interlude: Am C G Am (repeat)

(Chorus:)

[Am]Billy was the bright one, [G]Tommy'[C]s off his head
[F]Mother love[C]d them both the same
At l[G]east thats what she said
[Am]I don't predict the future       [G]
[C]I don't care about the past
[F]Send them both to D.S.S    [C]
[G]Now you had your chance
[Am]The posion stole your babies         [G]
[C]The judges took your rights
[F]You can have your children o[C]r the nigh[G]t!!!
[Am]                                  

Important: The song above is NOT stored on the Chordie server. The original song is hosted at www.guitaretab.com. Chordie works as a search engine and provides on-the-fly formatting. Chordie does not index songs against artists'/composers' will. To remove this song please click here.

Text color:
Chord color:
Chord grids: 
Font size:    
Page size: 

Am C E7 E7/C E7/D F G
variations - click chord images

Login - add to songbook

Transpose chords

Tuning

Rating click stars to rate

Layout
Accuracy

SHARE PAGE  




You need to log in to post comments