Guitar Tabs, Chords and Lyrics


World Full Of Hate  Dropkick Murphys

-------------------------------------------------------------------------------



-------------------------------------------------------------------------------

e|-----------------------------------------------------------------|
B|---------------------------------------------1-------------------|
G|------------------------------------0----------------------------|
D|-0-----------0000022222p----------2---2---2-----2----------------|
A|---2p----0h2-------------3--0h2-3-------3---------3-33320---0----|
E|------33--------------------------------------------------3------|
[G]A feeling inside in the b[C]ack of my h[Am]ead.
[C]Like a song you still know from so long ago
[G]And I wouldn't change a t[D]hing.
[G]Like a car driving by triggers some[C]thing in my m[Am]ind
[C]Am I retreiving my direction or just char[G]ging forward bl[D]ind?
[G]Am I every thing that you wa[C]nted me to [Am]be?
[C]Have I lost that condition a con[G]ection I couldn't s[D]ee?
Chorus

[G]Til the end like a friend stands by you again and I wo[C]uldn't change a t[Am]hing
[C]Toe to toe, friend or foe, it's all that I know and I wo[G]uldn't change a th[D]ing

at the end of the chorus
e|-------------------------------------------------------------------------|
B|-------------------------------------------------------------------------|
G|-------------------------------------------------------------------------|
D|-------------------------------------------------------------------------|
A|--3-2-0---0--------------------------------------------------------------|
E|--------3----------------------------------------------------------------|


along with...

[C]      [D]                               

2nd verse

[G]As the years pass us by, will I st[C]ill make the g[Am]rade?
[C]Can I really offer anything and w[G]ill my soul be sa[D]ved?
[G]Can you cleanse me of...Drive o[C]ut the s[Am]wine?
[C]Am I only falling farther can you k[G]eep me safe from h[D]arm?
[G]The memories you build in the house on the hill
[C]Would you really change a t[Am]hing?
[C]Corrected mistakes in a world full of hate, ne[G]ver changes any[D]thing.

at the end of the chorus
e|-------------------------------------------------------------------------|
B|-------------------------------------------------------------------------|
G|-------------------------------------------------------------------------|
D|-------------------------------------------------------------------------|
A|--3-2-0---0--------------------------------------------------------------|
E|--------3----------------------------------------------------------------|

[C]    [D]                                 
bridge...

e|--------------------------------------------------------------|
B|------------------------------------------1-------------------|
G|---------------------------------0----------------------------|
D|----------0000022222p----------2---2---2-----2----------------|
A|-----0h2--------------3--0h2-3-------3---------3-33320---0----|
E|--33---------------------------------------------------3------|


along with...
[G]         [C]   [Am]    [C]   [G]   [D]               


2nd Chorus: The lyrics are not identical to the first, but the strum pattern stays the same.

[G]Til the end, like a friend (this is sung long and stretched out.)
[C]Stands by you a[Am]gain (same with this)
[C]Toe to toe, friend or foe, i[G]t's all that I k[D]now (and this)

This part goes back to being fast:

[G]Til the end like a friend stands by you again and I wo[C]uldn't change a t[Am]hing.
[C]Toe to toe, friend or foe, it's all that I know and I wou[G]ldn't change a   [D]
[D]thing

e|-------------------------------------------------------------------------|
B|-------------------------------------------------------------------------|
G|-------------------------------------------------------------------------|
D|-------------------------------------------------------------------------|
A|--3-2-0---0--------------------------------------------------------------|
E|--------3----------------------------------------------------------------|


[C]     [D]                                
And then end on this:

[G]                                     

thanks go to greenfinger182 for the chord progresion i just had to fix the intro...


awesome song... really has a good value to it...
not to hard to play but really fun...
give it your best...

thanks... any comments or questions on it e-mail me...

Important: The song above is NOT stored on the Chordie server. The original song is hosted at www.guitaretab.com. Chordie works as a search engine and provides on-the-fly formatting. Chordie does not index songs against artists'/composers' will. To remove this song please click here.

Text color:
Chord color:
Chord grids: 
Font size:    
Page size: 

Am C D G
variations - click chord images

Login - add to songbook

Transpose chords

Tuning

Rating click stars to rate

Layout
Accuracy

SHARE PAGE  




You need to log in to post comments