Guitar Tabs, Chords and Lyrics


This Is Your Life  Dropkick Murphys

e-----3-3p2------------|-----3-3p2--3--3-3-------|----------|--3~------|


B--3--3-3-3--2--2-2-3--|--3--3-3-3--3--3-3-------|----------|--3~--2~--|


G--2--2-2-2--2--2-2-2--|--2--2-2-2--0--0-0-------|----------|--0~--2~--|

D--0---------2--2-2-2--|--0---------0--0-0--2-0--|--Part-1--|--0~--2~--|
A------------0--0-0-0--|------------2------------|----------|--2~--0~--|
E----------------------|------------3------------|----------|--3~------|
e---------|--5-5-5-5-5-5-7-5--------|-----------------------|
B--5-7-8--|------------------8-7-5--|--3--2--0--------------|
G---------|-------------------------|-----------2--0--------|
D---------|-------------------------|-----------------4--2--|
A---------|-------------------------|-----------------------|
E---------|-------------------------|-----------------------|
D* G* Fill---> e--3------|
As you remember your way home B----3----|
D* G* G------0--|
On what's [A]left of your blackened soul
D* A*
You've come to this conclusion
D* G* Fill
As you're dragged from another bloody fight
D* G*
You've reached the age where you've decided
That you've [A]lived out your whole life

Pre-Chorus:
A[G]nother busted [A]knuckle, taken [D]down by a kick to the balls
You've [G]wasted time, [A]wasting time as life's [D]shadow grows so tall
It's [G]another busted knuckle, it's a fight you'll never win
Dsus D A*
And now you bow your head in shame, for a sin no one forgives

Chorus:
[D]Fight, fight, you'll [G]never win [A]
[D]Tonight I'll [G]start again [A]
[D]Fight, fight you'll [G]never win  [A]
[D]How will I [G]make amends[A]
[D]This is [A]our [G]life[A], [D]this is [A]our [G]time[A]
[D]This is [A]my [G]life[A], [D]don't waste [A]my [G]time[A]

Verse 2:
D* A*
Your wife can't understand you
D* G* Fill
And you've alienated your oldest friends
D* G* A
Breaking back and fingers to the bone

Burning candles at both ends
D* A* D*
Tired of this petty life you lead
G* Fill
A series of dull events
D* G*
A two-bit, half-***ed effigy
Of [A]someone else's dread

Pre-Chorus

Chorus x1

[D]                                     
D,D,A,G,G,A x2

Outro: x2
[D]This is [A]our [G]life[A], [D]this is [A]our [G]time[A]
[D]This is [A]my [G]life[A], [D]don't waste [A]my [G]time[A]

D,D,A,G,G,A x2

Outro Riff: x4
e------------|
B--3--2-3-5--|
G--2--2-2-2--|
D--0--0-0-0--|
A------------|
E------------|


End on D

That's it! For suggestions, corrections, and requests, email me:
oddmenout4@yahoo.com

Important: The song above is NOT stored on the Chordie server. The original song is hosted at www.guitaretab.com. Chordie works as a search engine and provides on-the-fly formatting. Chordie does not index songs against artists'/composers' will. To remove this song please click here.

Text color:
Chord color:
Chord grids: 
Font size:    
Page size: 

A D G
variations - click chord images

Login - add to songbook

Transpose chords

Tuning

Rating click stars to rate

Layout
Accuracy

SHARE PAGE  




You need to log in to post comments