Guitar Tabs, Chords and Lyrics


Tenant Enemy 1  Dropkick Murphys

e-------------------------------|


B-------------------------------|


G----------5--5-5---------------| x4

D--5--5-5--5--5-5--5--5-5--5-5--|
A--5--5-5--3--3-3--5--5-5--5-5--|
E--3--3-3----------3--3-3--3-3--|
And they [C]always find a way to kick out the [D]needy
Chorus:
Tenant Enemy [G]Number [C]One! [G]
Tenant [C]Enemy [G]Number [C]One! [D]

Verse 2:
G* C* G*
Through excuses and blatant lies
G* C* G*
Is how they operate
G* C* G*
And by continuing a parade of Deception
G* C* G*
The game just continues,
[C]How in the name of decency do They [D]sleep?

Chorus x2

Solo:
e-------------------------------------------------------|
B-------------------------------------------------------|
G-------------------------------------------------------| x2
D--5--5--7-5-7-9--9-9-7-9-9--9-10-9-10-12--12-12-12-12--|
A-------------------------------------------------------|
E-------------------------------------------------------|


Bridge:
[C]Just you better look out and watch your [D]backs...

Outro Chorus:
Tenant Enemy [G]Number [C]One[G]! Tenant [C]Enemy [G]Number [C]One! [G]  (x4)

That's It! For suggestions, corrections, and requests, email me:
oddmenout4@yahoo.com

Important: The song above is NOT stored on the Chordie server. The original song is hosted at www.guitaretab.com. Chordie works as a search engine and provides on-the-fly formatting. Chordie does not index songs against artists'/composers' will. To remove this song please click here.

Text color:
Chord color:
Chord grids: 
Font size:    
Page size: 

C D G
variations - click chord images

Login - add to songbook

Transpose chords

Tuning

Rating click stars to rate

Layout
Accuracy

SHARE PAGE  




You need to log in to post comments