Guitar Tabs, Chords and Lyrics


Gonna Be A Blackout Tonight  Dropkick Murphys

G----------------------------|


D---------9---------7-7-0-0--| x12?


A--7--7-7---7--5--5----------|

E----------------------------|
e--------------------------------------------------------------------------|
B--------------------------------------------------------------------------|
G--9-----9-----9--7----9--7----9-9--7-7--9-9--7-7--9-9--7-7-9-9--7-7-7-7-7-|
D--9-----9-----9--7----9--7----9-9--7-7--9-9--7-7--9-9--7-7-9-9--7-7-7-7-7-|
A--7-----7-----7--5----7--5----7-7--5-5--7-7--5-5--7-7--5-5-7-7--5-5-5-5-5-|
E--------------------------------------------------------------------------|
e----------------------------------------------------------------------|
B----------------------------------------------------------------------|
G--9-9-9-9-9-9-9-9--7-7-7-7-7-7-7-7--9-9-9-9-9-9-9-9--7-7-7-7-7-7-7-7--|
D--9-9-9-9-9-9-9-9--7-7-7-7-7-7-7-7--9-9-9-9-9-9-9-9--7-7-7-7-7-7-7-7--|
A--7-7-7-7-7-7-7-7--5-5-5-5-5-5-5-5--7-7-7-7-7-7-7-7--5-5-5-5-5-5-5-5--|
E----------------------------------------------------------------------|
There's gonna [A]be a blackout to[B]night
e D
My town is big, and my town is bright
e
My town can work and my town can fight
e D
So don't strike no light, and don't cause a riot
There's gonna [A]be a blackout to[B]night

Blackout Tonight!

Chorus:
[D]Gonna be a Blackout,[A] Blackout tonight
[D]Gonna be a Blackout![A]
e
Gonna do what my air raid man says is right
[B]Blackout tonight![D]
[D]Pull down the shades, and turn off the [Eb]lights

Verse 2:
e D
Lights will go out all over town
e
And the air raid wardenwalks up and down
e D
It's part of the war, I'm gonna do it right
There's gonna [A]be a blackout to[B]night

Blackout Tonight!

Chorus x1

e,D,C,B x2 (ring out)

Bass riff x8?

Verse 2 x1

Chorus x1

Thats' it! For suggestions, corrections, and requests, email me:
oddmenout4@yahoo.com

Important: The song above is NOT stored on the Chordie server. The original song is hosted at www.guitaretab.com. Chordie works as a search engine and provides on-the-fly formatting. Chordie does not index songs against artists'/composers' will. To remove this song please click here.

Text color:
Chord color:
Chord grids: 
Font size:    
Page size: 

A B D Eb
variations - click chord images

Login - add to songbook

Transpose chords

Tuning

Rating click stars to rate

Layout
Accuracy

SHARE PAGE  




You need to log in to post comments