Guitar Tabs, Chords and Lyrics


The Dirty Glass  Dropkick Murphys

  [D]                  [G]      [D]         [G]      [D]      [A]      [D]                       
e--2--2-----2--2--------------2--------------------------|
B--3--3-----3--3-----3-3-3-3--3-----3-3-3-3-3-3----------|
G--2--0-----2--0-----4-2-0-2--0-----4-2-0-2-2-2----------|
D--0----2p0-0----2h4------------2h4---------4-0-2-4-2-0--|
A-----------------------------------------------0-0-0-0--|
E--------------------------------------------------------|


Verse 1:(play intro riff through verse)
[D]Murphy, Murphy, [G]darling [D]dear,
I [G]long for you [D]now night and [A]day[Asus-A]
Your [D]pain was my pleasure, your [G]sorrow my [D]joy
I [G]feel now I've [D]lost you to [A]health and good [D]cheer

D,G D,A D,G,A,D x2

Mandolin Lead: x2
e------------------------------------------------------------------|
B--7--7-7-7-7---8--8-8-8-8----7--7-7-7-7----5--5-5-5-5----7-7-7----|
G------------7-------------7-------------7--------------7-------7--|
D------------------------------------------------------------------|
A------------------------------------------------------------------|
E------------------------------------------------------------------|
e----------------------|
B--8-7-5----5h7-5------|
G--------5--------4-5--|
D----------------------|
A----------------------|
E----------------------|


Verse 2:
[G]Darcy, when I met you I was [D]five years too [A]young
A [D]boy beyond his [G]age, or so I'd [A]tell some[D]one
[Bm]Anyone who'd listen and a f[G]ew who couldn't care
Still I [D]welcomed you with [G]open arms, my [A]love I did [D]share

Chorus:
[D]Darcy, Darcy [G]darling dear,
You [D]left me dying, [A]crying there
In [D]whiskey, gin, and [G]pints of beer
I [A]fell for you my [D]darling dear

Mandolin Lead x1

Verse 3:
[G]You shut me off and you [D]showed me the [A]door
But you [D]always came [G]crawling back [A]begging me for [D]more
[Bm]I showed you kindness, a [G]stool, and a tab
Then you [D]poured me my [G]pain in a [A]dirty [D]glass
(Yeah, [G]you left him bloody, battered, [D]penniless, and [A]poor)
You know, I [D]often stopped and [G]wondered how you [A]made it through my [D]door
With my [Bm]brother's new non-duplicate [G]registry ID
Well you [D]bit off more than [G]you could chew the [A]first day you [D]met me

Chorus x1

Mandolin Lead x1

Verse 4:
You [G]weren't the first to court me mister [D]you won't be the [A]last
Oh, [D]sure I wasn't [G]honey, I know [A]all about your [D]past
[Bm]Listen to the big shot with his [G]pager on call
You spent [D]most of those [G]nights in my [A]bathroom [D]stall
(Yeah, [G]you got him high, but you [D]left him [A]low)
[D]Mind you own [G]business, boy, [A]how was I to [D]know
That [Bm]he was just a fiend and a [G]no-good cheat
Well it's [D]all in the [G]past **** 'cause [A]now I've got it [D]beat

Chorus x2

Bridge: x3
e------------------------|-----------|
B------------------------|-----------|
G--7---------------------|-----------|
D--7---7-9-7-5-7--4-2----|--7-7-7-7--|
A--5---5-5-5-5-5--0-0----|--7-7-7-7--|
E------------------------|--5-5-5-5--|


Chorus x2

Mandolin x2

Intro

That's it! For suggestions, corrections, and requests, email me:
oddmenout4@yahoo.com

Important: The song above is NOT stored on the Chordie server. The original song is hosted at www.guitaretab.com. Chordie works as a search engine and provides on-the-fly formatting. Chordie does not index songs against artists'/composers' will. To remove this song please click here.

Text color:
Chord color:
Chord grids: 
Font size:    
Page size: 

A Asus-A Bm D G
variations - click chord images

Login - add to songbook

Transpose chords

Tuning

Rating click stars to rate

Layout
Accuracy

SHARE PAGE  




You need to log in to post comments