Guitar Tabs, Chords and Lyrics


3rd Man In  Dropkick Murphys

e------------------|-----|---------------------------|


B------------------|-----|---------------------------|


G-10-10-9-9-7-7-5--|-----|--------------------5------| second time ring out

D-10-10-9-9-7-7-5--|--5--|--5------7------3---5---5--|
A--8--8-7-7-5-5-3--|--5--|--5------7------3---3---5--|
E------------------|--3--|--3------5------1-------3--|
[F]My friends, my [G]town - comrade[C]rie, we'll never [D]finish last
[F]We stood as [G]one where are they [C]now
[F]We grew up [G]fast: too young to [C]know or really [D]give a ****
[F]The past has [G]left us worse for [C]wear
Chorus:
[G]Be strong and stand, [A]stand up like a man
Your [F]concept of [C]friendship isn't [G]right
[G]Third man in is [A]how you show your care
[F]Nothing else [C]matters but the [G-F-G]fight!

Verse 2:
[F]Some will sur[G]vive, I hope I'm [C]one of them [D]
[F]Things aren't [G]what they used to [C]be
[F]It makes me [G]sick, our bond has [C]broke and things aren't [D]what they were
[F]It's time to [G]face life on my [C]own

Chorus x1

Solo: x2
e-----------------------|-----------------------------|
B-----------------------|-----------------------------|
G------2-3-2-0-2-0-2----|--5--7-5-3-5--2--5--7-5-3-5--|
D--3-5---------------3--|-----------------------------|
A-----------------------|-----------------------------|
E-----------------------|-----------------------------|


Intro Part 2 x1

Chorus x2

That's it! For suggestions, corrections, and requests, email me:
oddmenout4@yahoo.com

Important: The song above is NOT stored on the Chordie server. The original song is hosted at www.guitaretab.com. Chordie works as a search engine and provides on-the-fly formatting. Chordie does not index songs against artists'/composers' will. To remove this song please click here.

Text color:
Chord color:
Chord grids: 
Font size:    
Page size: 

A C D F G
variations - click chord images

Login - add to songbook

Transpose chords

Tuning

Rating click stars to rate

Layout
Accuracy

SHARE PAGE  




You need to log in to post comments