Guitar Tabs, Chords and Lyrics


Caught In A Jar  Dropkick Murphys

e-----------------------------------------|


B--------1------1---1--------1--0--0-0----|


G--------0------2---2--------0--0--0-0----|

D------2---2--3---3--------2--------------|
A--2h3-----------------2h3-------------2--|
E-----------------------------------------|
Now there [C]comes a tim[F]e in [C]every man's life[G]
Where de[C]cisions [F]have to be[C] made:[G]
Whether to[C] toil, to[F] labor, or [C]just plain[G] piss your days a[C]way,
[F]Away, a[C]way..[G].
Chorus:
[C]Got a funny [F]feeling that my [C]times are caught in a [G]jar
[C]Madness and in[F]sanity have arr[G]ived
[C]Know to Christ and [F]everyone else, my [C]times are caught in a [G]jar
Satan's [C]Grin is [F]bearing down on [G]me

Verse 2:
[C]Up in the morn,[F] here comes the day, [C]God knows I [G]hate it this way
[C]When i'm in a[F] casket [C]life  [G]
[C]Fighting the wife, ne[F]glecting the kids,[C] spending time on ri[G]diculous bids
The [C]four walls are [F]closing [C]in... [G]

Chorus x1

Solo:
e-------0-3-1-0-1-0~------------0-3-1-0-1-------------|
B--0-1~--------------5-3~--0-1~-----------3-1---1-----|
G---------------------------------------------2---0~--|
D-----------------------------------------------------|
A-----------------------------------------------------|
E-----------------------------------------------------|


Chorus (just bass)

Chorus x2(gang vocals)

slow first half of chorus as outro

That's it! For suggestions, corrections, and requests email me:
oddmenout4@yahoo.com

Important: The song above is NOT stored on the Chordie server. The original song is hosted at www.guitaretab.com. Chordie works as a search engine and provides on-the-fly formatting. Chordie does not index songs against artists'/composers' will. To remove this song please click here.

Text color:
Chord color:
Chord grids: 
Font size:    
Page size: 

C F G
variations - click chord images

Login - add to songbook

Transpose chords

Tuning

Rating click stars to rate

Layout
Accuracy

SHARE PAGE  




You need to log in to post comments