Guitar Tabs, Chords and Lyrics


Firestarter Karaoke  Dropkick Murphys

e--------------------------|


B--------------------------|


G--9-9--7-7----------------| x2

D--9-9--7-7--7-7--7-7-7/5--|
A--7-7--5-5--7-7--7-7-7/5--|
E------------5-5--5-5-5/3--|
[D]It doesn't take a [A]big man to [G]knock somebody [A]down,
[D]Just a little [A]courage to [G]lift him off the [A]ground
Verse 2:
D A A G (pick G)
This world is not what it seems
These [D]beer balls are [A]rui[A]ning my [G]dreams

Repeat Verse 1 x2

Chorus x2

Verse 2

Solo:
e----------------------12----------0------------------------|
B-------------------------12~--12b-0------------------------|
G----------------------------------12-----------------------|
D--7b9--7r-7-5-5--------------------------------------------|
A----------------7v--------------------7/(slide down slow)--|
E-----------------------------------------------------------|


Bridge:
e* D* A* G*
Stabbed in the back one too many times to count,
e* D* A* G*
Master of the sucker punch, burned his bridges from the past
e* D* A* G*
Beaten and attacked, but no one seems to give a ****,
e* D* A* G*
Cause he had it coming,you made your bed now sleep in it!

Chorus x2

Verse 2

That's it! For suggestions, corrections, and requests, email me:
clark@theoddmenout.com

Important: The song above is NOT stored on the Chordie server. The original song is hosted at www.guitaretab.com. Chordie works as a search engine and provides on-the-fly formatting. Chordie does not index songs against artists'/composers' will. To remove this song please click here.

Text color:
Chord color:
Chord grids: 
Font size:    
Page size: 

A D G
variations - click chord images

Login - add to songbook

Transpose chords

Tuning

Rating click stars to rate

Layout
Accuracy

SHARE PAGE  




You need to log in to post comments