Guitar Tabs, Chords and Lyrics


Perfect Stranger  Dropkick Murphys

e--3-3-3-3--3-3-3-3-3-3-3-3-3-3-3-3--|--3-3-3-3-3-3-3--3-3-3-3-3-3-3-3--|


B--3-1-0-3--3-3-3-3-3-3-3-3-3-3-3-3--|--3-1-0-3-3-5-3--3-3-3-3-3-3-3-3--|


G------------------------------------|----------------------------------|

D------------------------------------|----------------------------------|
A------------------------------------|----------------------------------|
E------------------------------------|----------------------------------|
e--3-3-3-3-3-3-3-3-3-3--|
B--1-0-3-3-5-3-3-3-3-3--|
G-----------------------| (2nd guitar rings a few G's during this part)
D-----------------------|
A-----------------------|
E-----------------------|
[D]Schizo[C]phrenic [G]nightmares sending [D]shivers [C]down my [G]spine
I [D]may be a [C]little [G]twisted, but I [D]swear that my [C]life is [G]fine
Chorus:
[A]I'm [B]living with a [C]perfect stranger, is there [G]anybody home?
[A]I'm [B]living with a [C]perfect stranger, but I [D]find myself alone

Riff 1 x2

Verse 2:
Well I'm still [D]working to [C]make life [G]better,
Though I've [D]fallen [C]from God's [G]grace
I'm [D]standing s[C]till in a [G]shattered mirror,
[D]Staring at [C]somebody [G]else's face

Chorus x1

Break: x4
e------------|
B------------|
G-------5-5--|
D--5~---5-5--|
A--5~---3-3--|
E--3~--------|


Chorus x1 (This time after the first C snap G--C-G chords)

Bridge:
G~ F-G~
Just when things are back on track, I sabotage myself
F-G~ F-G~
These are all certain telltale signs of my decaying mental health
A,B-C,G
Nobody's home!!!!! (this line x3)
A,B-C,G
I find myself alone!

End on G

That's it! For suggestions, corrections, and requests, email me:
oddmenout4@yahoo.com

Important: The song above is NOT stored on the Chordie server. The original song is hosted at www.guitaretab.com. Chordie works as a search engine and provides on-the-fly formatting. Chordie does not index songs against artists'/composers' will. To remove this song please click here.

Text color:
Chord color:
Chord grids: 
Font size:    
Page size: 

A B C D G
variations - click chord images

Login - add to songbook

Transpose chords

Tuning

Rating click stars to rate

Layout
Accuracy

SHARE PAGE  




You need to log in to post comments