Guitar Tabs, Chords and Lyrics


Pipebomb On Lansdowne  Dropkick Murphys

G-----------------------------------|


D-----------------------------------|


A-----------------------------------|

E--2-2-2-2-2-2-2-2-2-2-2-2-2-2-2-2--|
e---------------------|------------------------------------|
B---------------------|------------------------------------|
G---------------------|-----------------9/-11-11-11-11-11--|
D--4~---7~---9~---4~--|--4~---7~---9~---9/-11-11-11-11-11--|
A--4~---7~---9~---4~--|--4~---7~---9~---7/-9--9--9--9--9---|
E--2~---5~---7~---2~--|--2~---5~---7~----------------------|
It's [F#]Friday night, and the [A]street's filled with freaks,
Come [B]watch as the useless [F#]flock to the beat
Of the [F#]techno noise that [A]enhances their high,
A [B]bomb's gonna blow, and I [F#]think you know why!
Pre-Chorus:
e-----------------------------------|
B-----------------------------------|
G-----------------------------------|
D--4~---2~---4~---/-10-10-10--9--7--|
A--4~---2~---4~---/-10-10-10--9--7--|
E--2~---0~---2~---/-8--8--8---7--5--|


Chorus:
[F#]Everybody's running out, [E]bodies hit the ground,
You'd [F#]better take cover, it's  a [C]Pipebomb on [B]Lans[A]downe
[F#]Everybody's running out, [E]bodies hit the ground,
You'd [F#]better take cover, it's  a [C]Pipebomb on [B]Lans[A]downe [F#]Street

F#,A,B,F#

Verse 2:
There's [F#]no room for dancing on your [A]precious floors,
Cause you've [B]got to save space for the [F#]jocks and whores
You [F#]say that our shows are for [A]violent thugs,
But [B]we're not the ones on de[F#]signer drugs

Pre-Chorus x1

Chorus x1

Intro x1

Verse 3:
It's [F#]not a bunch of little kids we're [A]out to harm and maim,
So make [B]sure the night you hurl the pipe there's [F#]no baseball game
[F#]Look for flyers, check the phoenix, are there [A]any decent shows,
If Keith [B]Bennett isn't working then the [F#]bomb is good to go...

Pre-Chorus x1

Chorus x1

Outro:
[C]Pipebomb on [B]Lans[A]downe! (x3)
F#~
Street!

e---------------|
B---------------|
G---------------|
D--10--9--7--4--|
A--10--9--7--4--|
E--8---7--5--2--|


That's it! For suggestions, corrections, and requests, email me:
oddmenout4@yahoo.com

Important: The song above is NOT stored on the Chordie server. The original song is hosted at www.guitaretab.com. Chordie works as a search engine and provides on-the-fly formatting. Chordie does not index songs against artists'/composers' will. To remove this song please click here.

Text color:
Chord color:
Chord grids: 
Font size:    
Page size: 

A B C E F#
variations - click chord images

Login - add to songbook

Transpose chords

Tuning

Rating click stars to rate

Layout
Accuracy

SHARE PAGE  




You need to log in to post comments