Guitar Tabs, Chords and Lyrics


Warriors Code  Dropkick Murphys

-------------------------------------------------------------------------------



-------------------------------------------------------------------------------

e|---------------------------------------------------------------|
B|---------------------------------------------------------------|
G|-8888810101012121212121313131010101010888----------------------|
D|-888888-8-8-8-8-8-8-8-8-8-8-8-8-8-8-8-888-1212121212121212-----|
A|----------------------------8-8-8-8-8-888-8-8-8-8-8-8-8-8-8----|
E|---------------------------------------------------------------|
e|-----------------------------------------------------------------|
B|-----------------------------------------------------------------|
G|----------------8------------------------------------------------|
D|-10101010108-10--------------------------------------------------|
A|-6-6-6-6-6-6-6--6------------------------------------------------|
E|-----------------------------------------------------------------|
[A]You're the fighter[G] you've got[D] the fire
[A]The spirit of a warrior, the[G] champion's[D] heart
[A]You fight for your life becaus[G]e the fighter never quits    [D]
[D]You make the most of the[G] hand you're dealt                        [A]
B[A]ecause the quitter never wins
[D]   [G]    [A]                              
Y[A]ou were born to box in a city [G]that's seen their share        [D]
[A]Miller Rye Connell[G]y among them your pho[D]to proudly hangs there                             [A]
Above the bar in th[G]e Gaelic Club   [D]
They tell the story of a throwback      [A]
With the heart o[G]f a lion
[D]They salute your glory
Interlude: D A G A

[G]It's another murderous night            [D]
Another left ho[A]ok from hell
[G]A bloody war on the boardwalk       [D]
And the kid fro[A]m Lowell rises to the bell

(Chorus:)
[D]Mick[G]y   [A]
[D]It's[G] a w[A]arrior's code

Bridge

D G A x4

(Chorus:)
[D]Mick[G]y   [A]
[D]It's[G] a w[A]arrior's code

[D]  [G]  [A]                                [D]  [G]  [A]                              

Important: The song above is NOT stored on the Chordie server. The original song is hosted at www.guitaretab.com. Chordie works as a search engine and provides on-the-fly formatting. Chordie does not index songs against artists'/composers' will. To remove this song please click here.

Text color:
Chord color:
Chord grids: 
Font size:    
Page size: 

A D G
variations - click chord images

Login - add to songbook

Transpose chords

Tuning

Rating click stars to rate

Layout
Accuracy

SHARE PAGE  




You need to log in to post comments