Guitar Tabs, Chords and Lyrics


1000 Miles Acoustic  Dropout Year

E-----------------------------------|


A---5---5-----5-------9-7-----------|


D------------------7------0---------|

G-----7---7-6----6------------------|
B-----------------------------------|
e-----------------------------------|
|-----------------------------------|
|--5------5-----5---5---5---7-9-7-5-|
|-------------7---7---7-------------|
|-7--7--6---6-----------------------|
|-----------------------------------|
|-----------------------------------|
|-----------------------------------|
|---5-----5-----9-7-----------------|
|-------------7-----0---------------|
|-7---7-6---6-----------------------|
|-----------------------------------|
|-----------------------------------|
|-----------------------------------|
|-9-7---9-7------7-7-9-7-5----------|
|-----0-----0--7--------------------|
|-----------------------------------|
|-----------------------------------|
|-----------------------------------|
[D]   [F#]    [E]   And I need you
[D]   [F#]    [E]   And I miss you
[D]   [F#]    [E]   And I [D]won[C#]der
Chorus
If [D]I could fall[E], int[C#]o the sk[D]y
Do [D]you think ti[E]me, would [C#]pass me [D]by
Cos [D]you know I'[E]d walk 1[C#]000 m[D]iles if I could
[D]Just [F#]see [E]you, [D]tonight


Verse 2
It's [D]always [C#]times like th[A]ese when I [E]think of [D]you and I w[C#]onder if [A]you [E]ever
x 2
think of me
But s[D]omething [C#]feels so wr[A]ong and I d[E]on't be[D]long li[C#]ving i[A]n your [E]precious
x 2
memory


Pre Chorus
[D]   [F#]    [E]   And I need you
[D]   [F#]    [E]   And I miss you
[D]   [F#]    [E]   And I [D]won[C#]der


Chorus
If [D]I could fall[E], int[C#]o the sk[D]y
Do [D]you think ti[E]me, would [C#]pass me [D]by
Cos [D]you know I'[E]d walk 1[C#]000 m[D]iles if I could
[D]Just [F#]see [E]you, [D]tonight


Bridge
[B]I, [C#]I, [D]don't want to [E]let you know
[B]I, [C#]I, [D]dwell in your [E]memory
[B]I, [C#]I, [D]don't want to [E]let this go
[B]I, [C#]I, [E]don't


Verse 3
D C# A E D C# A E x 2
Makin my way downtown, walking fast, faces pass and I'm home bound
D C# A E D C# A E x 2
Just staring blankly ahead, making my way, making a way through the crowd


Pre chorus
[D]   [F#]    [E]   And I still need you
[D]   [F#]    [E]   And I still miss you
[D]   [F#]    [E]   And now I [D]won[C#]der

Chorus
If [D]I could fall[E], int[C#]o the sk[D]y
Do [D]you think ti[E]me, would [C#]pass us [D]by
Cos [D]you know I'[E]d walk 1[C#]000 m[D]iles if I could
[D]Just [F#]see [E]you
If [D]I could fall[E] into[C#] the sky[D]
Do [D]you think ti[E]me would p[C#]ass me b[D]y
Coz [D]you know I'[E]d walk 1[C#]000 m[D]iles if I could
[D]Just [F#]see [E]you
If I could [D]just [A]hold [E]you

Tonight

Outro
E-----------------------------------|
A---5---5-----5-------9-7-----------|
D------------------7------0---------|
G-----7---7-6----6------------------|
B-----------------------------------|
e-----------------------------------|
|-----------------------------------|
|--5------5-----5---5---5---7-9-7-5-|
|-------------7---7---7-------------|
|-7--7--6---6-----------------------|
|-----------------------------------|
|-----------------------------------|
|-----------------------------------|
|---5-----5-----9-7-----------------|
|-------------7-----0---------------|
|-7---7-6---6-----------------------|
|-----------------------------------|
|-----------------------------------|
|-------------------------------------|
|-9-7---9-7------7--------------------|
|-----0-----0--7----------------------|
|-------------------------------------|
|-------------------------------------|
|-------------------------------------|


They did there own cover of the original by Vanessa Carolton.
Feel free to comment and rate.

Important: The song above is NOT stored on the Chordie server. The original song is hosted at www.guitaretab.com. Chordie works as a search engine and provides on-the-fly formatting. Chordie does not index songs against artists'/composers' will. To remove this song please click here.

Text color:
Chord color:
Chord grids: 
Font size:    
Page size: 

A B C# D E F#
variations - click chord images

Login - add to songbook

Transpose chords

Tuning

Rating click stars to rate

Layout
Accuracy

SHARE PAGE  




You need to log in to post comments