Guitar Tabs, Chords and Lyrics


Bodies   Drowning Pool



Song - Bodies
Artist - Drowning Pool
Album - Sinner

Tabbed by - Joey Greger
email - usmarines0688@yahoo.com

Tuning: Drop C, (C,G,C,F,A,D)

Ok, this song should be %100 percent correct.  Use a wah-wah pedal for this song, trust 
it'll will sound kick ass.


intro/Chorus
|--------------------------------------------|
|--------------------------------------------|
|-7--7-7-------------------------------------|
|-x--x-x--6--6-6-6--0--0-0--6-6-3-0----------|  x2
|-5--5-5--6--6-6-6--0--0-0--6-6-3-0----------|
|---------6--6-6-6--0--0-0--6-6-3-0----------|

Fill 1:  use wah-wah pedal
|--------------------------------------------------------------------|
|---------------15-15-15-15-15-15-----------------16-16-16-16-16-16--|
|---------------14-14-14-14-14-14-----------------15-15-15-15-15-15--|  x4
|--12--12-12-12-12-12-12-12-12-12----12--12-12-13-13-13-13-13-13-13--|
|--------------------------------------------------------------------|
|--------------------------------------------------------------------|

Verse:  all palm muted
|---------------------------------------|
|---------------------------------------|
|---------------------------------------|
|--0--1--0---0-1-3---0--1--0---0-1-3----|  x4
|--0--1--0---0-1-3---0--1--0---0-1-3----|
|--0--1--0---0-1-3---0--1--0---0-1-3----|
........................................

Fill 2:  no wah-wah pedal, just distortion
|---------------------------------------|
|-----------15-15-15-----------16-16-16-|
|-----------14-14-14-----------15-15-15-|
|--0--0--0--12-12-12--0--0--0--13-13-13-|   x4
|--0--0--0------------0--0--0-----------|
|--0--0--0------------0--0--0-----------|
pm........           .........

|--------------------------------------------|
|--------------------------------------------|
|-7--7-7-------------------------------------|
|-x--x-x--6--6-6-6--0--0-0--6-6-3-0----------|  x4
|-5--5-5--6--6-6-6--0--0-0--6-6-3-0----------|
|---------6--6-6-6--0--0-0--6-6-3-0----------|

use wah-wah pedal
|--------------------------------------------------------------------|
|---------------15-15-15-15-15-15-----------------16-16-16-16-16-16--|
|---------------14-14-14-14-14-14-----------------15-15-15-15-15-15--|  x4
|--12--12-12-12-12-12-12-12-12-12----12--12-12-13-13-13-13-13-13-13--|
|--------------------------------------------------------------------|
|--------------------------------------------------------------------|

Verse:  palm muted entirely
|-----------------------------------------|
|-----------------------------------------|
|-----------------------------------------|
|--0--1--0---0-1-3---0--1--0---0-1-3------|   x4
|--0--1--0---0-1-3---0--1--0---0-1-3------|
|--0--1--0---0-1-3---0--1--0---0-1-3------|
....................................

no wah-wah pedal, just distortion
|---------------------------------------|
|-----------15-15-15-----------16-16-16-|
|-----------14-14-14-----------15-15-15-|
|--0--0--0--12-12-12--0--0--0--13-13-13-|   x2
|--0--0--0------------0--0--0-----------|
|--0--0--0------------0--0--0-----------|
pm........           .........

|--------------------------------------------|
|--------------------------------------------|
|-7--7-7-------------------------------------|
|-x--x-x--6--6-6-6--0--0-0--6-6-3-0----------|   x2
|-5--5-5--6--6-6-6--0--0-0--6-6-3-0----------|
|---------6--6-6-6--0--0-0--6-6-3-0----------|

Bridge (Don't palm mute on last time)

|--------------------------|
|--------------------------|
|--------------------------|
|-3-66-3-1---1---3333-111--|  x2
|-3-66-3-1---1---3333-111--|
|-3-66-3-1---1---3333-111--|
            pm   .... ...

use wah-wah pedal
|--------------------------------------------------------------------|
|---------------15-15-15-15-15-15-----------------16-16-16-16-16-16--|
|---------------14-14-14-14-14-14-----------------15-15-15-15-15-15--|  x4
|--12--12-12-12-12-12-12-12-12-12----12--12-12-13-13-13-13-13-13-13--|
|--------------------------------------------------------------------|
|--------------------------------------------------------------------|

|--------------------------|
|--------------------------|
|--------------------------|
|-0-0-0-------0-0-0--------|    x2
|-0-0-0-------0-0-0--------|
|-0-0-0-------0-0-0--------|
........................

|-----------------------------|
|--------xxxx---------xxxxx---|
|--------xxxx---------xxxxx---|
|-0-0-0--xxxx--0-0-0--xxxxx---|   x2
|-0-0-0--------0-0-0----------|
|-0-0-0--------0-0-0----------|
...............................

|--------------------------------------------|
|--------------------------------------------|
|-7--7-7-------------------------------------|
|-x--x-x--6--6-6-6--0--0-0--6-6-3-0----------|  x4
|-5--5-5--6--6-6-6--0--0-0--6-6-3-0----------|
|---------6--6-6-6--0--0-0--6-6-3-0----------|

second time dont play the open part
|-----------------------------------|
|-----------------------------------|
|-7--7-7----------7--7-7------------|
|-x--x-x-6-6-6-6--x--x-x--6-6--3-0--|  x2
|-5--5-5-6-6-6-6--5--5-5--6-6--3-0--|
|--------6-6-6-6----------6-6--3-0--|



Important: The song above is NOT stored on the Chordie server. The original song is hosted at www.guitaretab.com. Chordie works as a search engine and provides on-the-fly formatting. Chordie does not index songs against artists/composers will. To remove this song please click here.

This song is displayed as text-only. Transposing and tuning is only available for chordpro-songs.

Login - add to songbook

Rating click stars to rate

Layout
Accuracy

SHARE PAGE  




You need to log in to post comments