Chordie logo


Trampolines   Drowning Shakespeare



tuned to c#g#c#f#a#d#, aka drop d half step down
link to site; www.myspace.com/drowningshakespeare

intro x2
------------------------------------------------|
------------------------------------------------|
-------------------4-2--------------------------|
-2-----5-4---2--------4/5--0----7---------------|  palm mute the 0's and 7's
-2--------5--2-------------0----7---------------|
-2-----------2-------------0----7---------------|

verse x2
-----------------------------------------------|
-----------------------------------------------|
-12--7--9--5--7--------------------------------|
-12--7--9--5--7------9-0-0-10/12---------------|
-10--5--7--3--5---10---------------------------|
-10--5--7--3--5--------------------------------|

chorus pt I
------------------------------------------------|
------------------------------------------------|
------------------------------------------------|
-2--9--0-----9-0-0-10/12------------------------|
-3--10-0--10------------------------------------|
-------0----------------------------------------|

chorus pt II
------------------------------------------------|
------------------------------------------------|
------------------------------------------------|
-2--9---0--9-7-5-4-5-5p4p0----------------------|
-3--10--0-0-0-0-0-0-0---------------------------| palm mute all the 0's
--------0---------------------------------------|

chorus pt III
------------------------------------------------|
------------------------------------------------|
--------------------------------------11h12-12*-|
-2--9---0----2--9---0------9h10-10h12-----------|
-3--10--0----3--10--0-9h10----------------------|
--------0-----------0---------------------------|

back and forth thing x4
------------------------------------------------|
------------------------------------------------|
------------------------------------------------|
-2----------------------------------------------|
-2----------------------------------------------|
-2----------------------------------------------|

half-time breakdown x8
------------------------------------------------|
------------------------------------------------|
------------------4-2---------------------------|
2--4/5-4-----2-------4/5------------------------|
2--------5b--2----------------------------------|
2------------2----------------------------------|

build up x1
------------------------------------------------|
------------------------------------------------|
------------------------------------------------|
-2--9---0--7------------------------------------|palm mute all.
-3--10--0--7------------------------------------|
--------0--7------------------------------------|

Meedely Meedely part  x2
----7p0----5p0----|---7p0-----5p0--------7p0-----10p0-----|
-------7p0----5p0-|-------7p0-----5p0--------7p0------7p0-|
------------------|---------------------------------------|
-2----------------|-5------------------7------------------|
-2----------------|-5------------------7------------------|
-2----------------|-5------------------7------------------|

palm mute part x4
-------|----7*-------------------------------------|
-------|----7*-------------------------------------|
-------|----7*-------------------------------------|
-2--5*-|-5-----7-12*-------------------------------|
-2--5*-|-5-----7-12*-------------------------------|
-2-----|-5-----7-----------------------------------|

end
------------------------------------------------|
------------------------------------------------|
------------------------------------------------|
-2----------------------------------------------|
-2----------------------------------------------|


Important: The song above is NOT stored on the Chordie server. The original song is hosted at www.guitaretab.com. Chordie works as a search engine and provides on-the-fly formatting. Chordie does not index songs against artists/composers will. To remove this song please click here.

This song is displayed as text-only. Transposing and tuning is only available for chordpro-songs.

Login - add to songbook

Rating click stars to rate

Layout
Accuracy

SHARE PAGE  




You need to log in to post comments