eToCache5 = ""; ?> Take The A Train by Duke Ellington - guitar chords, guitar tabs and lyrics - chordie

Take The A Train

Duke Ellington

---------------------------------------------------------------------------

---------------------------------------------------------------------------
e|----------------|-0----------------|-----0------------|-----------------|
B|----------------|--------------1---|------------------|-----------------|
G|-0--------------|-------0----------|------------1-----|-(1)-------------|
D|----------------|------------------|------------------|-----------------|
A|----------------|------------------|------------------|-----------------|
E|----------------|------------------|------------------|-----------------|
e|----------------|-------0----------|------------------|-----------------|
B|----------------|-----0---------2--|--1---------------|-----------------|
G|--2-------------|-2-3-----0--------|------------------|-----------------|
D|----------------|-----------4-3----|-------2----------|--(2)------------|
A|----------------|------------------|------------------|-----------------|
E|----------------|------------------|------------------|-----------------|
e|----------------|--0---------------|---0--------------|-----------------|
B|---------1------|--------------1---|------------------|-----------------|
G|--2-------------|----------2-------|-----------2------|-----(2)---------|
D|----------------|-----3------------|------------------|-----------------|
A|----------------|------------------|------------------|-----------------|
E|----------------|------------------|------------------|-----------------|
e|----------------|--0---------------|---0--------------|-----------------|
B|---------1------|--------------1---|------------------|-----------------|
G|--2-------------|----------2-------|-----------2------|-----(2)-----1---|
D|----------------|-----4------------|------------------|-----------------|
A|----------------|------------------|------------------|-----------------|
E|----------------|------------------|------------------|-----------------|
e|------------------|-----------------|
B|--1---------------|---------0--1----|
G|------------------|---0--2----------|
D|------2--3--4-----|-----------------|
A|------------------|--------------3--|
E|------------------|-----------------|

 C6D7b5D-7G13/FG-9/FFmaj7/AC9G13b9/FD9Cmaj7
e|---5---5-----5----5------5-------0------3----4------5----7--|
B|---5---6-----3----5------3-------1------3----5------5----5--|
G|---5---6-----5----4------3-------2------3----4------5----5--|
D|---5---5-----3----3------3-------3------2----3------4----5--|
A|--(3)-(5)---(5)-----------------(0)----(3)---------(5)---3--|
E|------------------------------------------------------------|

Notes in Parenthesis are optional depending on whether you have a bass or not. I never
roots.




C6 C9 Cmaj7 D-7 D7b5 D9 Fmaj7/A
variations - click chord images
Transpose chords:
Tuning:
Cool service:
View: Size:
A  A  A
Rating:
Layout:
  • Currently 2.8/5 Stars.
  • 1
  • 2
  • 3
  • 4
  • 5
 
Accuracy:
  • Currently 3.8/5 Stars.
  • 1
  • 2
  • 3
  • 4
  • 5
 
click stars to rate
Chordie recommends:
Learn to play songs at Jamplay.com with video guitar lessons
Songbook:
Login to add this song to your songbook
Support the artist
Preview/buy this song
MSN Music
Why this non-profit ad?

 
login to add comments/video/corrections