Hagelangs

Dumdum Boys

 ---
Intro:

Guitar1 plays lead, as tabs show.
Guitar2 sets in halway through the intro, playing
the verse and chorus, as chords show.

e-------5-----------------------------------------
B--3/5---------5\4/5\4/5----6--7------------------
G-------------------------------------------------
D-------------------------------------------------
A-------------------------------------------------
E-------------------------------------------------
e--/7---------------------------------------------
B------7---5\3/5\3--------------3--5\3/5\3--------
G------------------------2-2/4--------------------
D-------------------------------------------------
A-------------------------------------------------
E-------------------------------------------------
e--/7--/10-9-7------------------------------------
B---------------7\5/7-----------------------------
G-------------------------------------------------
D-------------------------------------------------
A-------------------------------------------------
E-------------------------------------------------
e--5----------------------------7-----------------
B-----5/7\5---3---3/5-3-----5/7-------------------
G---------------2---------------------------------
D-------------------------------------------------
A-------------------------------------------------
E-------------------------------------------------


Verse 1:
Bm - G - D ( x8 )

e------7------------------------------------------
B--5/7---7/5/3-------3/5/3/5----------------------
G------------------2------------------------------
D-------------------------------------------------
A-------------------------------------------------
E-------------------------------------------------


Chorus 1:
A - G - D/F# - G - D - C - G


Verse 2:
Bm - G - D ( x4 )

e--------7-----10-7-------------------------------
B--3/5/7------------7/5/3/5-----------------------
G-------------------------------------------------
D-------------------------------------------------
A-------------------------------------------------
E-------------------------------------------------


Chorus 2:
A - G - D/F# - G - D - C - G

 D-A-G-D-A-G

Verse 3:
Bm - G - D ( x4 )

e------7------------------10/7--------------------
B--5/7-----3/5-3/5/3-----------7/5/3---3/5/3/5/7--
G-------------------------------------------------
D-------------------------------------------------
A-------------------------------------------------
E-------------------------------------------------
e-------------------------------------------------
B------3-3/5/3-----3-/7/7-3/5/3/5-----------------
G----2--------------------------------------------
D--4----------------------------------------------
A-------------------------------------------------
E-------------------------------------------------


Chorus 3:
A - G - D/F# - G - D - C - G 

 A-G-D/F#-G
 G - D - A - G ( repeat and fade )

e-------------------------------------------------
B----------3----3/5/7/5---2-3-0-------------------
G--4/6/4/6----------------------------------------
D-------------------------------------------------
A-------------------------------------------------
E-------------------------------------------------


Enjoy!

- EOF -


A D D/F# G
variations - click chord images
Transpose chords:
Tuning:
Cool service:
View: Size:
A  A  A
Rating:
Layout:
  • Currently 3/5 Stars.
  • 1
  • 2
  • 3
  • 4
  • 5
 
Accuracy:
  • Currently 2.7/5 Stars.
  • 1
  • 2
  • 3
  • 4
  • 5
 
click stars to rate
Chordie recommends:
Learn to play this song & others via video guitar lessons at JamPlay.com
Songbook:
Login to add this song to your songbook
Support the artist
Preview/buy this song
MSN Music
Why this non-profit ad?

 
login to add comments/video/corrections