Chordie logo

Clover   Dumptruk Karavan



artist: dumptruk karavan
song: clover
album: horizons

intro (plat through twice)

----------------------------------------------------|
----------------------------------------------------|
----------------------------------------------------|
---------2-----------4-----------2------------------|
------4-----4-----0-----0-----4-----4---------------|
---3-----------3-----------3-----------3/2----------|


verse

--------------------------------------|
--------------------------------------|
--------------------------------------|
--7-7-7-5-5-7-9---9/7--5-7------------|
--7-7-7-5-5-7-9---9/7--5-7------------|
--7-7-7-5-5-7-9---9/7--5-7------------|

chorus

--------------------------------------------------|
--------------------------------------------------|
--------------------------------------------------|
---3--5-5-5---3--5-5-5---3------------------------|
---3--5-5-5---3--5-5-5---3------------------------|


Important: The song above is NOT stored on the Chordie server. The original song is hosted at www.guitaretab.com. Chordie works as a search engine and provides on-the-fly formatting. Chordie does not index songs against artists/composers will. To remove this song please click here.

This song is displayed as text-only. Transposing and tuning is only available for chordpro-songs.

Login - add to songbook

Rating click stars to rate

Layout
Accuracy

SHARE PAGE  

You need to log in to post comments