Guitar Tabs, Chords and Lyrics


Step Into The Light   Dust For Life



song:  Step Into The Light
band:  Dust For Life
album: Dust For Life
tabbed by: ibanez27

tuning: drop d down 1/2 step (Db, Ab, Db, Gb, Bb, Eb)

this is my first tab, so don't complain if it's messed up too much.  
it's a great song by a great band, and not too hard to play.

 distortion throughout

INTRO:
 Eb--------------------------------------------------
 Bb--------------------------------------------------
 Gb-------------------------------------------------- play 4x
 Db--------------------------------------------------
 Ab--0--0--3--5----3--5--6----6--5--6--5h6--5--3--0--
 Db--0--0--3--5----3--5--6----6--5--6--5h6--5--3--0--

VERSE 1:
 Eb--------------------------------------------------
 Bb--------------------------------------------------
 Gb-------------------------------------------------- play 4x
 Db--------------------------------------------------
 Ab--0--0--3--5----3--5--6----6--5--6--5h6--5--3--0--
 Db--0--0--3--5----3--5--6----6--5--6--5h6--5--3--0--
    |pm..|       |pm|           |pm..|        |pm..|

PRECHORUS??? Anybody have it?

CHORUS: not sure about this part
 Eb----------------------------------------------------
 Bb----------------------------------------------------
 Gb--12----12--12----12--12----12----12--12--12--12---- (those are 10s,
 Db---x-----x---x-----x---x-----x-----x---x---x---x----  11s, and 12s, NOT
 Ab--10----12--10----10--10----10----10--10--10--10----   1, 2, and 0)
 Db----------------------------------------------------

 Eb----------------------------------------------------
 Bb--10----10--10----10--10----10----10--10--10--10---- play 3x??
 Gb--11----11--11----11--11----11----11--11--11--11---- (there's some sort 
 Db---0-----0---0-----0---0-----0-----0---0---0---0----  of fill at the 
 Ab----------------------------------------------------  end but it's too 
 Db----------------------------------------------------  difficult for me)

INTERLUDE:
 play intro 4 times

VERSE 2:
 same as verse 1

BRIDGE:
 Eb------------------------------           --------------------------
 Bb------------------------------           --------------------------
 Gb------------------------------ play 3x   --------------------------
 Db------------------------------    then:  --------------------------
 Ab-----------5--------3---------           --------5--3--5~~~-3--5---
 Db--0--0--3--------------3--5---           --0--3--------------------

AFTER BRIDGE:
   (I'll wait to see the way...)
 Eb------------------------------
 Bb------------------------------
 Gb------------------------------ 
 Db------------------------------
 Ab-----------5--------3--------- play 16x....
 Db--0--0--3--------------3--5---  
    |p.m....|            |p.m.|


then....(with clean tone)
 Eb--------------------------------------------------
 Bb--6--6--6--6--6--6--6--6--8--8--8--8--8--8--8--8--
 Gb--0--0--0--0--0--0--0--0--0--0--0--0--0--0--0--0--
 Db--8--8--8--8--8--8--8--8-10-10-10-10-10-10-10-10--
 Ab--x--x--x--x--x--x--x--x--x--x--x--x--x--x--x--x--
 Db--8--8--8--8--8--8--8--8-10-10-10-10-10-10-10-10--

OUTRO: still working on it, but at the very end, play:
 Eb-------------------------------------------------------
 Bb-------------------------------------------------------
 Gb-------------------------------------------------------
 Db-------------------------------------------------------
 Ab--0--0--3--5----3--5--6----6--5--6--5h6-5--3--0--0--0--
 Db--0--0--3--5----3--5--6----6--5--6--5h6-5--3--0--0--0--


I know it's not everything, but most of it is there, and i know MOST of it 
is right.  If you have any questions, comments, changes, email me at da_haus03@yahoo.com


===========


Step Into the Light - Dust for Life

I haven't seen any tabs for this band.  They're pretty good and I hope maybe
some more tabs for other songs will pop up. This tab is not exact but its close
enough.  There is no order, just most of the pieces you need to play it.

Tuning - Drop D/down half step from lo to high Db,Ab,Db,Gb,Bb,Eb

Intro/ Main Riff
Eb -----------------------------------------------------------------
Bb -----------------------------------------------------------------
Gb -----------------------------------------------------------------
Db -----------------------------------------------------------------
Ab --0-0---3--5--3--5--6---6--5--6--5--6--5---3---0-----------------
Db --0-0---3--5--3--5--6---6--5--6--5--6--5---3---0-----------------
Chorus
Eb -----------7--------0---0---0----0----0----0---------------------
Bb ----12-----7--------0---0---0---10---10---10---------------------
Gb ----12-----7-------12--12--12---11---11---11---------------------
Db ----12--------------x---x---x----0----0----0---------------------
Ab -------------------10--10--10------------------------------------
Db -----------------------------------------------------------------

There is some finger picking im not sure of but thats the gist of it.



Important: The song above is NOT stored on the Chordie server. The original song is hosted at www.guitaretab.com. Chordie works as a search engine and provides on-the-fly formatting. Chordie does not index songs against artists'/composers' will. To remove this song please click here.

This song is displayed as text-only. Transposing and tuning is only available for chordpro-songs.

Login - add to songbook

Rating click stars to rate

Layout
Accuracy

SHARE PAGE  




You need to log in to post comments