Guitar Tabs, Chords and Lyrics


A Long Way Home  Dwight Yoakam



     ___   ___   ___    [D]
|\| | | | | | |
| | | | | | | |
|---------------------|-------------------------|
|---------------------|-------------------------|
|---------------------|-------------------------|
|-------0-4---0-------|-0-----------------------|
|-0-2----/------2---0-|-------------------------|
|---------S-----------|-------------------------|


         ___                [Em]
|\| | | | |
| | | | | |

|-------------------------|-------------------------|
|-------------------------|-------------------------|
|-|\----------------------|-------------------------|
|-----------0-4-----2-----|-------------------------|
|-----0-2----/------------|-------------------------|
|-------------S-----------|-0-----------------------|



         ___   ___   ___    [G]
|\| | | | | | |
| | | | | | | |
|-------------------------|-------------------------|
|-------------------------|-------------------------|
|-|\----------------------|-------------------------|
|-----------0-4---0-2---0-|-------------------------|
|-----0-2----/------------|-------------------------|
|-------------S-----------|-3-----------------------|


         ___   ___   ___    [D]
|\| | | | | | |
| | | | | | | |
|-------------------------|-------------------------|
|-------------------------|-------------------------|
|-|\----------------------|-------------------------|
|-----------0-4---0-------|-0-----------------------|
|-----0-2----/------2---0-|-------------------------|
|-------------S-----------|-------------------------|


VERSE 1
Don't look ins[D]ide no, don't look t[Em]here
'Cause you might f[G]ind[A] yourself somewh[D]ere
Walkin' arou[D]nd lost and al[Em]one
Without one [G]clue[A] that it's a long way [D]home

VERSE 2
Years and y[D]ears is a lot of t[Em]ime
To drag your [G]heart across e[A]very rock you f[D]ind
Hate is d[D]eep and its pull is st[Em]rong
But the passion's s[G]hort[A] then it's a long way h[D]ome

BRIDGE
[Em]I can't take one s[G]ingle step for y[D]ou
But I [Em]might just help
To [G]find some
Small pathway t[A]hrough

VERSE 3
Don't look [D]back, 'cause you might [Em]see
Just how f[G]ar [A]all that used to [D]be
Just let your [D]mind think on what's [Em]gone
And then you'll [G]know[A] that it's a long way [D]home

CODA
Yeah, you'll [G]know[A] that it's a long way [D]home
You'll find [G]out[A] that it's a long way [D]home
There ain't no [Em]doubt[A] that it's a long way [G]home [D]

Important: The song above is NOT stored on the Chordie server. The original song is hosted at www.guitaretab.com. Chordie works as a search engine and provides on-the-fly formatting. Chordie does not index songs against artists'/composers' will. To remove this song please click here.

Text color:
Chord color:
Chord grids: 
Font size:    
Page size: 

A D Em G
variations - click chord images

Login - add to songbook

Transpose chords

Tuning

Rating click stars to rate

Layout
Accuracy

SHARE PAGE  




You need to log in to post comments