Chordie logo


Jak Malowany Ptak   Dzem



    "Jak malowany ptak"
    (from "Detox")
    Music by Dzem

    Intro:

e-------------------------------------------------------------------------------------|
H-------------------------------------------------------------------------------------|
G---2--2-----2-------5--5------5---------5--5-----5-----------5--5-----5\4-----2-2----|
D---2--2-----2-------5--5------5---------4--4-----4-----------3--3-----5\4-----2-2----|
A---0--0-----0-------3--3------3---------3--3-----3-----------3--3-----3\2-----0-0----|
E-------------------------------------------------------------------------------------|
    Refrain:

e----------------------------------------------------------------------------------------------|
H----------------------------------------------------------------------------------------------|
G----------------------------------------------------------------------------------------------|
D--------------------2-------2-----------------------------------------------------------------|
A--0-----0--2--3---------------3--2--------------3--2--0-----------------0--2--3--2------0-----|
E-----------------------------------------1-------------------3-----------3------------------3-|
    Solo:

e------------------------------------------------------------------------------------------|
H------------------------------------------------------------------------------------------|
G----5--5------5--------8--8------8---------8--8-----8------------8--8-----8\7-----5--5----|
D----5--5------5--------8--8------8---------7--7-----7------------6--6-----8\7-----5--5----|
A----3--3------3--------6--6------6---------6--6-----6------------6--6-----6\5-----3--3----|
E------------------------------------------------------------------------------------------|



Important: The song above is NOT stored on the Chordie server. The original song is hosted at www.guitaretab.com. Chordie works as a search engine and provides on-the-fly formatting. Chordie does not index songs against artists/composers will. To remove this song please click here.

This song is displayed as text-only. Transposing and tuning is only available for chordpro-songs.

Login - add to songbook

Rating click stars to rate

Layout
Accuracy

SHARE PAGE  




You need to log in to post comments