Guitar Tabs, Chords and Lyrics


Music  Unknown



  [Asus2]      [Asus4/G]        [Asus2]      [G]  [D]             
Bridge
D C/D Asus4/G G x2

Chorus
  [D]Can you [C/D]hear the [G]music in my [C/D]ears
  [D]Can you [C/D]see the [G]girl who's in my [C/D]eyes
  [D]Can you [C/D]hear the [G]music   [C/D]

  |-----------------|
  |-----------------|
  |---------------2-|
  |-2-------------2-|
  |-3-3-3-3-3-2-0-0-|
  |-----------------|


Asus2 | Asus4/G | Asus2 | G | D | x2

Verse

Bridge

Chorus


Solo

Rhythm guitar
Asus2 Asus4/G Asus2 (repeat until end of solo)

Lead
 |-----------------------------------------------------------------------|
 |-----------------------------------------------------17----------------|
 |-16b18----r16--14--------16--16b18----r16--14--------------------------|
 |-------------------16-14-14--------------------16-14-------------------|
 |-----------------------------------------------------------------------|
 |-----------------------------------------------------------------------|
 |-----------------------------------------------------------------------|
 |-17-----17-15-14------------------17----17-15-14-----------------------|
 |----16-----------16-14-------16------16----------16-14-------16--------|
 |-----------------------16-14-14------------------------16-14-14--------|
 |-----------------------------------------------------------------------|
 |-----------------------------------------------------------------------|
 |-----------------------------------------------------------------------|
 |-----------------------------------------------------------------------|
 |-------------------------------------------------14-16-16b18r16-14~~~~-|
 |-------------14-------------14-------------14-16-----------------------|
 |-------14-16----------14-16----------14-16-----------------------------|
 |-17-17----------17-17----------17-17-----------------------------------|
 |-----------------------------------------------------------------------|
 |-----------------------------------------------------------------------|
 |-------------------------------------------------14-16-16b18r16-14~~~~-|
 |-------------14-------------14-------------14-16-----------------------|
 |-------14-16----------14-16----------14-16-----------------------------|
 |-17-17----------17-17----------17-17-----------------------------------|
 |--------------------------------------------------------|
 |--------------------------------------------------------|
 |-16b18----r16--14--------16--16b18----r16--14--------16-|
 |-------------------16-14-14--------------------16-14-14-|
 |--------------------------------------------------------|
 |--------------------------------------------------------|


Outro
Asus2 | Asus4/G | Asus2 | G | D | x4


Verse 1
Come down
To the river and
See the dam

Come down
From your mountain and
See the world

I know
Every which way you
Might go to get away

Don't say
It won't happen you
Just don't know the way

Verse 2
Come now
I will show you the
Best way to happiness

Come down
From that window to
Find a better place

Come now
Now or never
Don't get left behind

Don't say
It won't happen you
Just don't know the way

Important: The song above is NOT stored on the Chordie server. The original song is hosted at www.guitaretab.com. Chordie works as a search engine and provides on-the-fly formatting. Chordie does not index songs against artists'/composers' will. To remove this song please click here.

Text color:
Chord color:
Chord grids: 
Font size:    
Page size: 

Asus2 Asus4/G C/D D G
variations - click chord images

Login - add to songbook

Transpose chords

Tuning

Rating click stars to rate

Layout
Accuracy

Jango Player

SHARE PAGE  




You need to log in to post comments