Guitar Tabs, Chords and Lyrics
Major upgrade!! After one year development the new version of Chordie is now online! Please give feedback.


Foggy Mountain Breakdown   Earl Scruggs

 
 E[ ---------33-----33-----33-----------------------|
 B[-0-1-2/3----2/3---2/3 ---3-----------------------|
 G[------------------------------0------------------|
 D[-------------------------------------------------| R1
 A[-------------------------------------------------|
 E[-------------------------------------------------|
 E[--------3--3?3---33-----------------------------------|
 B[---------0--0---2/3--3--------------------------------|
 G[----------0?0--------0 R2 X 2-|
 D[0-1-2-------------------------------------------------|
 A[------------------------------------------------------|
 E[------------------------------------------------------|
 E[---------2?2-------------------------------------|
 B[0-1-2/3?3?3--------------------------------------|
 G[-----------------0-------------------------------| R3
 D[-------------------------------------------------|
 A[-------------------------------------------------|
 E[-------------------------------------------------|
 E[---------------------------------|
 B[---------------------------------|
 G[-----------0---------------------|
 D[------0h2------------------------| R4
 A[--0h2----------------------------|
 E[3--------------------------------|

 


 


 Solo


 

 
 E[10------10------10------------------------------------------------------10 Tremolo Pick^^^^^--|
 B[---10vv---10vv---10-10?8-8-8-8-8---------------------------8-8-10-Tremolo Pick^^^^^8----------|
 G[-----------------------------------9-9-9-9-7-----------7-7-9-7-9-9----------------------------|
 D[-----------------------------------------------7-5-5-7/9-9------------------------------------|
 A[----------------------------------------------------------------------------------------------|
 E[----------------------------------------------------------------------------------------------|


Important: The song above is NOT stored on the Chordie server. The original song is hosted at www.guitaretab.com. Chordie works as a search engine and provides on-the-fly formatting. Chordie does not index songs against artists'/composers' will. To remove this song please click here.

This song is displayed as text-only. Transposing and tuning is only available for chordpro-songs.
Rate #2 of 2 versions

Login - add to songbook

SHARE PAGE  




You need to log in to post comments