Chordie logo

Something That Produces Results   Early November



Tabbed by: Andrew (emosideproject2@aol.com)

Intro/Chorus
(Guitar 1)
eb|------------------------------------------|
Bb|------------------------------------------|
Gb|------------------------------------------|
Db|--4--0--7--4--0--7--4--0--7--4--0--7--4---|
Ab|--4--0--7--4--0--7--4--0--7--4--0--7--4---|
Db|--4--0--7--4--0--7--4--0--7--4--0--7--4---|

(Guitar 2)
eb|----------------------------------------------------------------0-----|
Bb|--------------------------------------------------------------0---0---|
Gb|--7/9\7-6-4-6-4-6-7-4-6-7-9--9-7-6-7-6-4-2/3\2-1-2--1\2--1\2----------|
Db|----------------------------------------------------------------------|
Ab|----------------------------------------------------------------------|
Db|----------------------------------------------------------------------|

Verse
(Guitar 1)
eb|------------------------------|
Bb|------------------------------|
Gb|------------------------------|
Db|--0-0--0-0---4-4---4-4--x4----|
Ab|--0-0--0-0---4-4---4-4--------|
Db|--0-0--0-0---4-4---4-4--------|
Palm Mute................

(Guitar 2)
eb|-------9---------9---------9-----------|
Bb|----10---10------10-----10---10--------|
Gb|--9--------------9----9----------------|
Db|-------------x4------------------x4----|
Ab|---------------------------------------|
Db|---------------------------------------|

Bridge
(Guitar 1)
eb|-------------------------------------------------|
Bb|-------------------------------------------------|
Gb|------2^-----2^ 2^^---------2^-----2^ 2^^--------|
Db|-4-4-----4-4--------0---4-4----4-4--------0--x2--|
Ab|-4-4-----4-4--------0---4-4----4-4--------0------|
Db|-4-4-----4-4--------0---4-4----4-4--------0------|

(Guitar 2)
eb|-------------------------------|
Bb|-------------------------------|
Gb|--13/14\13--13/14--16--16------|
Db|--x--x--x---x--x---x---x-------|
Ab|--11/12\11--11/12--14--14------|
Db|-------------------------------|

(Guitar 1)
eb|-----------------------------------------------|
Bb|-----------------------------------------------|
Gb|-------9--------9-----------9-------9----------|
Db|-----7---7----7---7-------7---7---7---7----x2--|
Ab|--4---------4--------4--5-------5-------5------|
Db|-----------------------------------------------|

(Guitar 2)
eb|-9---------9----------------9-----------9-----------10------------10----|
Bb|---10-------------------------10----10-----10---10------10----10--------|
Gb|-------9------9-7-6-2--7/9--------9-----------9-------------9-----------|
Db|------------------------------------------------------------------------|

Ab|------------------------------------------------------------------------|


Important: The song above is NOT stored on the Chordie server. The original song is hosted at www.guitaretab.com. Chordie works as a search engine and provides on-the-fly formatting. Chordie does not index songs against artists/composers will. To remove this song please click here.

This song is displayed as text-only. Transposing and tuning is only available for chordpro-songs.

Login - add to songbook

Rating click stars to rate

Layout
Accuracy

SHARE PAGE  



You need to log in to post comments