Chordie logo

1000 Times A Day   Early November



If youre in standard, capo I, if half step down like most of TEN's stuff, capo II


First series:

E|-4-----4-4-----4-4-----4-4-----4-4-----4-4-----4-4-----4-4-----4-|
B|---0---0---0---0---0---0---0---0---0---0---0---0---0---0---0---0-|
G|-----2-------2-------2-------2-------2-------2-------2-------2---|
D|-----------------------------------------------------------------|
A|-----------------------------------------------------------------|
E|-0-------0-------0-------0-------2-------2-------2-------2-------|

"And all I know..."
E|-4-----4-4-----4-4-----4-4-----4-4-----4-4-----4-4-----4-4-----4-|
B|---0---0---0---0---0---0---0---0---0---0---0---0---0---0---0---0-|
G|-----2-------2-------2-------2-------2-------2-------2-------2---|
D|-----------------------------------------------------------------|
A|-0-------0-------0-------0-------2-------2-------2-------2-------|
E|-----------------------------------------------------------------|

E|-4-----4-4-----4-4-----4-4-----4-4-----4-4-----4-4-----4-4-----4-|
B|---0---0---0---0---0---0---0---0---0---0---0---0---0---0---0---0-|
G|-----2-------2-------2-------2-------2-------2-------2-------2---|
D|-0-------0-------0-------0---------------------------------------|
A|---------------------------------0-------0-------0-------0-------|
E|-----------------------------------------------------------------|


Second Series:
E|-4-----|-4-----|-4-----|-4-----|
B|---0---|---0---|---0---|---0---|
G|-----2-|-----2-|-----2-|-----2-|
D|-------|-------|-------|-------|
A|-------|-0-----|-------|-2-----|
E|-2-----|-------|-0-----|-------|

That's about it. The picking's hard to get down but it's a pretty simple song. And as 


Important: The song above is NOT stored on the Chordie server. The original song is hosted at www.guitaretab.com. Chordie works as a search engine and provides on-the-fly formatting. Chordie does not index songs against artists/composers will. To remove this song please click here.

This song is displayed as text-only. Transposing and tuning is only available for chordpro-songs.

Login - add to songbook

Rating click stars to rate

Layout
Accuracy

SHARE PAGE  



You need to log in to post comments