Guitar Tabs, Chords and Lyrics


Me   Easyworld



song - me
band - easyworld
album - this is where i stand (probably)
tabbed by - rose williams abadchoice@hotmail.com
standard tuning

intro/verse
e---0--------2------0-0-0------0--------0------
b-0---0----0---0-------------4---0----0---0----
g----------------------------------------------
d----------------------------------------------
a----------2--------4--------2--------0--------
E-0--------------------------------------------

e-----------0--------0---0--------------0-----
b---------0---0----0---0--------------0---0---
g-------2---------------------------1---------
d-----2---------------------------2-----------
a---0---------------------------2-------------
E-2----------------0----------0---------------

chorus
e-0-0-0----0-0-0------0-------0-
b-------------------0---0---4---0
g--------------------------------
d--------------------------------
a-4--------4--------2-------2----
E--------------------------------

e-0-0-0----0-0-0--------0------------------
b-------------------0-0---0----0-----------
g------------------------------------------
d------------------------------------------
a-4--------4--------0----------0-----------
E-------------------------------------5/---

e-----0----------2----------0-0------0-0--
b-0-0---0----0-0---0----4-4--------4------
g-----------------------------------------
d-----------------------------------------
a------------2----------4----------2------
E-0---------------------------------------

e---0----------------0--------0---0-----------0---
b-0---0------------0------0-0---0-----------0---0-
g----------------2------------------------1-------
d--------------2------------------------2---------
a-0----------0------------------------2-----------
E----------2--------------0---------0-------------

solo (with strings)
e-0---0-----0---2-----0---0------0-0------0-----
b--0---0-----0---0-----2---2----0-4-4----0-0----
g---1---1-----1---1-----1---1--------1----------
d-----------------------------------------------
a-----------2--------(4)--------2---------0-----
E-0---------------------------------------------

e------0----0-0-----0-------
b-----0----0-0-0---0-0------
g----2----------------------
d---2-----------------------
a--0------------------------
E-2--------0-------0--------


notes


Important: The song above is NOT stored on the Chordie server. The original song is hosted at www.guitaretab.com. Chordie works as a search engine and provides on-the-fly formatting. Chordie does not index songs against artists/composers will. To remove this song please click here.

This song is displayed as text-only. Transposing and tuning is only available for chordpro-songs.

Login - add to songbook

Rating click stars to rate

Layout
Accuracy

Jango Player

SHARE PAGE  




You need to log in to post comments