Chordie logo
content loaded from cache

Lips Like Sugar  Echo and The Bunnymen

e|Opening-Riff---------------------------------------------------------------|


B|---------------------------------------------------------------------------|


G|---------------------------------------------------------------------------|


D|-------------4-----------------------------4-------------------------------|


A|--7-6-7-6-------7-6-7-6---------7-6-7-6-------7-6-7-6----------------------|


E|----------7--------------7-0------------7-------------7-0------------------|




[B]She floats like a swa[B7]n  [E]    [B]Grace on the wate[B7]r  [E]
[B]Lips like suga[B7]r  [E]           [B]Lips like suga[B7]r  [E]
[B]Just when you think you’ve [B7]caught [E]her
[B]She glides across the [B7]wat[E]er
[B]She calls for you [B7]ton[E]ight
[B]To share this moonligh[B7]t  [E]
[B]You’ll flow down her river [B7]she’ll ask you and you’ll give her
[B7]Lips like [A]sugar sugar [B]kisses
[B]Lips like [A]sugar sugar [B]kisses
[B]She knows what she know[B7]s  [E]     [B]I know what she’s thinkin[B7]g  [E]
[B]Sugar kisse[B7]s  [E]       [B]sugar kisse[B7]s  [E]
[B]Just when you think she’s [B7]your[E]’s
[B]She’s flown to other [B7]shore[E]s
[B]To laugh at how you [B7]break[E]
[B]And melt into this [B7]lak[E]e
[B]You’ll flow down her river, but [B7]you’ll never give her
[B7]Lips like [A]sugar, sugar [B]kisses
[B]Lips like [A]sugar, sugar [B]kisses

Solo
e|------------------------------------------------------------------------|
B|-4-5-7-4-5-7-4-5-7-4-5-7-5-4--------------4-5-7-4-5-7-4-5-7-4-5-7-5-5---|
G|-----------------------------4-4-4-4-4-4--------------------------------|
D|------------------------------------------------------------------------|
A|------------------------------------------------------------------------|
E|------------------------------------------------------------------------|
e|-5-5-5-5-------------------------------------------------------------------|
B|---------9-9-9-7-7-9-7-7-5-7-8-7-5----2---2-3-2-----7-5-7-8-7-5------------|
G|------------------------------------4---4-------4-4-------------2-2-2-2-2-4|
D|---------------------------------------------------------------------------|
A|---------------------------------------------------------------------------|
E|---------------------------------------------------------------------------|


Shell be my mirror
Reflect what I am
A loser and a winner
The king of siam
And my siamese twin
Alone on the river
Mirror kisses
Mirror kisses

Lips like sugar
Sugar kisses
Lips like sugar
Sugar kisses

Lips like sugar
Sugar kisses
Lips like sugar
Sugar kisses

Lips like sugar
Sugar kisses
Lips like sugar

Important: The song above is NOT stored on the Chordie server. The original song is hosted at www.guitaretab.com. Chordie works as a search engine and provides on-the-fly formatting. Chordie does not index songs against artists/composers will. To remove this song please click here.

A B B7 E
variations - click chord images

Transpose chords

Tuning

Rating click stars to rate

Layout
Accuracy

SHARE PAGE  

You need to log in to post comments