Amikor Meg

Edda

-------------------


 EmDCB
e -----15-14-12---------------------------|
h -12-----------12-----10-12-10-----------|
g ------------------12----------9-11------|
d ----------------------------------------|
a ----------------------------------------|
E ----------------------------------------|


 Am9BEmB
e ----------------------------------------|
h -------12---12-10-13-12-10-12--8-7-5-7--|
g --9-12----8-----------------------------|
d ----------------------------------------|
a ----------------------------------------|
E ----------------------------------------|


Verse:

 EmCAm7Am7D
 Amikor meg kezdodot a szerelmunk     
 EmCBsus4B
 Amikor meg velem orultel        
 EmCAm7Am7D
 Amikor meg boldogan elfogadtuk       
 EmCBsus4B
 Az olcso szalodak izet        

solo: same like intro solo !!! x1

 EmCAm7Am7D
 Amikor meg szenvedejel  oleltel        
 EmCBsus4B
 Amikor meg tiszta volt a szo    
 EmCAm7Am7D
 Amikor meg mindent benem kerestel      
 EmCBsus4B
 S en voltam minden ami jo.      

Bridge:
 CmajAm6/CB7/4Em
 Remeltem ujra hivsz,elmulik minden kin
 EmAm6/CBsus4B
 Remeltem ujra hivsz igen.      

Ref:
 AmB7/9bEm
 Foszlanyokka szakadt ev    tizedek
 AmB7/9bEmAm
 nem letezo alom  kep,ateltem ujra
 B7/9bEmDCBsus4B
 a     kepzeletemben,hogy hivsz,ujra hivsz. 

Solo: same like intro solo !!! x2

Verse:

Amikor meg onfeledten szeretunk
Minden gondunk folot volt hid
Amokr meg arcod volt a tukorkep
S unep volt minden erintes.

Bridge:

Remeltem ujra hivsz,elmulik minden kin
Remeltem ujra hivsz igen.

Ref:

Foszlanyokka szakadt ev tizedek
nem letezo alom kep,ateltem ujra
a kepzeletemben,hogy hivsz,ujra hivsz.

Lelkemben egetem feny mosoljod
Emlekeim ne vehetik el,a multam az itt van
aszt melyen orzom,az enyem,csak az enyem!!

Solo: x6

 B7EAB7G#7C#m
e--------------------------------------------------|
h-10-9-7-9---10-9-5-7--9-7-4-5---------------------|
g--------------------------------------------------|
d--------------------------------------------------|
a--------------------------------------------------|
E--------------------------------------------------|


 F#m7B7EAB7
e--------------------------------------------------|
h-7-5-2-4--5-4-0-2-4-5-7-7-0-----------------------|
g--------------------------------------------------|
d--------------------------------------------------|
a--------------------------------------------------|
E--------------------------------------------------|


oahhh!!!!


A Am Am6/C Am7 Am9 B B7 B7/4 Bsus4 C C#m Cmaj D E Em F#m7 G#7
variations - click chord images
Transpose chords:
Tuning:
Cool service:
View: Size:
A  A  A
Rating:
Layout:
  • Currently 3.3/5 Stars.
  • 1
  • 2
  • 3
  • 4
  • 5
 
Accuracy:
  • Currently 3/5 Stars.
  • 1
  • 2
  • 3
  • 4
  • 5
 
click stars to rate
Chordie recommends:
Check out JamPlay.com for online video guitar lessons
Songbook:
Login to add this song to your songbook
Support the artist
Preview/buy this song
MSN Music
Why this non-profit ad?

 
login to add comments/video/corrections