Guitar Tabs, Chords and Lyrics


Puttin On The Ritz   Eddie Pennington









Title:	"Puttin' on the Ritz"
Artist:	Eddie Pennington
Album:	"Atonathum'"

Transcribed By:	Austin McCubbin (austinmccubbin@hotmail.com)

Tuning: Open A



Intro Riff:

X-----------------------------------
X---5---3---1---0---5---3---1---0---
X---5---4---2---1---5---4---2---1---
X---7---5---3---2---7---5---3---2---
X-----------------------------------
X-----------------------------------

Verse Riff:

X----------------------------------------------------------
X----------------------------------------------------------
X-------5-----5-----5-----5-----5-----5-----3------53------
X-----5-----5-----5-----5-----5-----5-----4----------54----
X-5h7-----7-----7-----7-----7-----7-----6--------------2---
X----------------------------------------------------------

Chorus Riff:

X------------------------------------------------------------------
X------------------------------------------3-------5---5-----------
X----------5-------6---6-------------3-5-6---6-5-3-5---5---4---4---
X----5-6-8---8-6-5-7---7---7---7--3/5----------------------6---6---
X-5/7----------------------9---9-----------------------------------
X------------------------------------------------------------------

Bridge Riff:

X---12-12-12-12-12------12-12-12-12-12-----10-10-10-10---12-10------------
X--13-13-13-13-13------13-13-13-13-13-----12-12-12-12----------13-12-10---
X-14-14-14-14-14------14-14-14-14-14-----13-13-13-13----------------------
X-------------------------------------------------------------------------
X-------------------------------------------------------------------------
X-------------------------------------------------------------------------

Outro Riff:

X-------------------------------------------5---
X---5---3---1---0---5---3---1---0---------5-----
X---5---4---2---1---5---4---2---1-------5-------
X---7---5---3---2---7---5---3---2-----7---------
X-----------------------------------0-----------
X-----------------------------------------------




Riff Sequence:

Intro x1
Verse x2
Chorus x1
Verse x3
Chorus x1
Verse x1
Bridge x2
Chorus x1
Bridge x1
Verse x2
Chorus x1
Verse x1
Outro x1


Note:  Pennington changes up the slides and 
hammer-ons several times during the song.


Important: The song above is NOT stored on the Chordie server. The original song is hosted at www.guitaretab.com. Chordie works as a search engine and provides on-the-fly formatting. Chordie does not index songs against artists/composers will. To remove this song please click here.

This song is displayed as text-only. Transposing and tuning is only available for chordpro-songs.

Login - add to songbook

Rating click stars to rate

Layout
Accuracy

SHARE PAGE  




You need to log in to post comments