Guitar Tabs, Chords and Lyrics


If I Was Your Girlfriend   Eels



Tabbed By: Reyce

I know this is a Prince cover but i have yet to hear the Prince version...

Capo 1st:

Intro part (Heavy distortion)
e|-------------------------------------------------|
B|-------------------------------------------------|
G|-------------------------------------------------|
D|--333--333---------------------------------------|
A|--333--333--------------333-333------------------|
E|--111--111--////(12)----111-111--////(14)--------|

Its hard to make out with all the distortion and the bass kinda takes it away but he 
keeps playing F and then sliding higher

Verse:
e|------0----------|------0----------|------0----------|------0-------------|
B|--------3---3----|--------3---3----|--------3---3----|--------3---3-------|
G|----0-----0---0--|----0-----0---0--|----2-----2---2--|----2-----2---2-----|
D|--2--------------|--2--------------|--0--------------|--0-----------------|
A|-----------------|-----------------|-----------------|--------------------|
E|-----------------|-----------------|-----------------|--------------------|

Chorus:
e|--00000---00000---000000000000---|
B|--33333---33333---333333333333---|
G|--00000---55555---222222222222---|
D|--22222---22222---000000000000---|
A|--00000---00000---000000000000---|
E|---------------------------------|



Important: The song above is NOT stored on the Chordie server. The original song is hosted at www.guitaretab.com. Chordie works as a search engine and provides on-the-fly formatting. Chordie does not index songs against artists'/composers' will. To remove this song please click here.

This song is displayed as text-only. Transposing and tuning is only available for chordpro-songs.

Login - add to songbook

Rating click stars to rate

Layout
Accuracy

SHARE PAGE  




You need to log in to post comments